  0
SECTION
  2
HEADER
  9
$ACADVER
  1
AC1015
  9
$ACADMAINTVER
 70
     6
  9
$DWGCODEPAGE
  3
ANSI_1250
  9
$INSBASE
 10
0.0
 20
0.0
 30
0.0
  9
$EXTMIN
 10
0.0
 20
0.0
 30
0.0
  9
$EXTMAX
 10
20000.0
 20
10000.0
 30
0.0
  9
$LIMMIN
 10
0.0
 20
0.0
  9
$LIMMAX
 10
20000.0
 20
10000.0
  9
$ORTHOMODE
 70
     0
  9
$REGENMODE
 70
     1
  9
$FILLMODE
 70
     1
  9
$QTEXTMODE
 70
     0
  9
$MIRRTEXT
 70
     1
  9
$LTSCALE
 40
1.0
  9
$ATTMODE
 70
     1
  9
$TEXTSIZE
 40
2.0
  9
$TRACEWID
 40
1.0
  9
$TEXTSTYLE
  7
Standard
  9
$CLAYER
  8
0
  9
$CELTYPE
  6
ByLayer
  9
$CECOLOR
 62
   256
  9
$CELTSCALE
 40
1.0
  9
$DISPSILH
 70
     0
  9
$DIMSCALE
 40
1.0
  9
$DIMASZ
 40
2.0
  9
$DIMEXO
 40
1.0
  9
$DIMDLI
 40
3.75
  9
$DIMRND
 40
0.0
  9
$DIMDLE
 40
0.0
  9
$DIMEXE
 40
1.0
  9
$DIMTP
 40
0.0
  9
$DIMTM
 40
0.0
  9
$DIMTXT
 40
2.0
  9
$DIMCEN
 40
2.5
  9
$DIMTSZ
 40
0.0
  9
$DIMTOL
 70
     0
  9
$DIMLIM
 70
     0
  9
$DIMTIH
 70
     1
  9
$DIMTOH
 70
     1
  9
$DIMSE1
 70
     0
  9
$DIMSE2
 70
     0
  9
$DIMTAD
 70
     1
  9
$DIMZIN
 70
     0
  9
$DIMBLK
  1

  9
$DIMASO
 70
     1
  9
$DIMSHO
 70
     1
  9
$DIMPOST
  1

  9
$DIMAPOST
  1

  9
$DIMALT
 70
     0
  9
$DIMALTD
 70
     3
  9
$DIMALTF
 40
0.0393700787
  9
$DIMLFAC
 40
1.0
  9
$DIMTOFL
 70
     1
  9
$DIMTVP
 40
0.0
  9
$DIMTIX
 70
     0
  9
$DIMSOXD
 70
     0
  9
$DIMSAH
 70
     0
  9
$DIMBLK1
  1

  9
$DIMBLK2
  1

  9
$DIMSTYLE
  2
ISO-25
  9
$DIMCLRD
 70
     0
  9
$DIMCLRE
 70
     0
  9
$DIMCLRT
 70
     0
  9
$DIMTFAC
 40
1.0
  9
$DIMGAP
 40
1.524
  9
$DIMJUST
 70
     0
  9
$DIMSD1
 70
     0
  9
$DIMSD2
 70
     0
  9
$DIMTOLJ
 70
     0
  9
$DIMTZIN
 70
     0
  9
$DIMALTZ
 70
     0
  9
$DIMALTTZ
 70
     0
  9
$DIMUPT
 70
     0
  9
$DIMDEC
 70
     2
  9
$DIMTDEC
 70
     0
  9
$DIMALTU
 70
     2
  9
$DIMALTTD
 70
     3
  9
$DIMTXSTY
  7
Standard
  9
$DIMAUNIT
 70
     0
  9
$DIMADEC
 70
     2
  9
$DIMALTRND
 40
0.0
  9
$DIMAZIN
 70
     0
  9
$DIMDSEP
 70
    44
  9
$DIMATFIT
 70
     3
  9
$DIMFRAC
 70
     0
  9
$DIMLDRBLK
  1

  9
$DIMLUNIT
 70
     2
  9
$DIMLWD
 70
    -2
  9
$DIMLWE
 70
    -2
  9
$DIMTMOVE
 70
     0
  9
$LUNITS
 70
     2
  9
$LUPREC
 70
     3
  9
$SKETCHINC
 40
1.0
  9
$FILLETRAD
 40
10.0
  9
$AUNITS
 70
     0
  9
$AUPREC
 70
     2
  9
$MENU
  1
.
  9
$ELEVATION
 40
0.0
  9
$PELEVATION
 40
0.0
  9
$THICKNESS
 40
0.0
  9
$LIMCHECK
 70
     0
  9
$CHAMFERA
 40
0.0
  9
$CHAMFERB
 40
0.0
  9
$CHAMFERC
 40
0.0
  9
$CHAMFERD
 40
0.0
  9
$SKPOLY
 70
     0
  9
$TDCREATE
 40
2459157.464744375
  9
$TDUCREATE
 40
2459157.423077708
  9
$TDUPDATE
 40
2459157.464744607
  9
$TDUUPDATE
 40
2459157.42307794
  9
$TDINDWG
 40
0.0000000116
  9
$TDUSRTIMER
 40
0.0000000116
  9
$USRTIMER
 70
     1
  9
$ANGBASE
 50
0.0
  9
$ANGDIR
 70
     0
  9
$PDMODE
 70
     0
  9
$PDSIZE
 40
-1.0
  9
$PLINEWID
 40
0.0
  9
$SPLFRAME
 70
     0
  9
$SPLINETYPE
 70
     6
  9
$SPLINESEGS
 70
     8
  9
$HANDSEED
  5
4A8
  9
$SURFTAB1
 70
     6
  9
$SURFTAB2
 70
     6
  9
$SURFTYPE
 70
     6
  9
$SURFU
 70
     6
  9
$SURFV
 70
     6
  9
$UCSBASE
  2

  9
$UCSNAME
  2

  9
$UCSORG
 10
0.0
 20
0.0
 30
0.0
  9
$UCSXDIR
 10
1.0
 20
0.0
 30
0.0
  9
$UCSYDIR
 10
0.0
 20
1.0
 30
0.0
  9
$UCSORTHOREF
  2

  9
$UCSORTHOVIEW
 70
     0
  9
$UCSORGTOP
 10
0.0
 20
0.0
 30
0.0
  9
$UCSORGBOTTOM
 10
0.0
 20
0.0
 30
0.0
  9
$UCSORGLEFT
 10
0.0
 20
0.0
 30
0.0
  9
$UCSORGRIGHT
 10
0.0
 20
0.0
 30
0.0
  9
$UCSORGFRONT
 10
0.0
 20
0.0
 30
0.0
  9
$UCSORGBACK
 10
0.0
 20
0.0
 30
0.0
  9
$PUCSBASE
  2

  9
$PUCSNAME
  2

  9
$PUCSORG
 10
0.0
 20
0.0
 30
0.0
  9
$PUCSXDIR
 10
1.0
 20
0.0
 30
0.0
  9
$PUCSYDIR
 10
0.0
 20
1.0
 30
0.0
  9
$PUCSORTHOREF
  2

  9
$PUCSORTHOVIEW
 70
     0
  9
$PUCSORGTOP
 10
0.0
 20
0.0
 30
0.0
  9
$PUCSORGBOTTOM
 10
0.0
 20
0.0
 30
0.0
  9
$PUCSORGLEFT
 10
0.0
 20
0.0
 30
0.0
  9
$PUCSORGRIGHT
 10
0.0
 20
0.0
 30
0.0
  9
$PUCSORGFRONT
 10
0.0
 20
0.0
 30
0.0
  9
$PUCSORGBACK
 10
0.0
 20
0.0
 30
0.0
  9
$USERI1
 70
     0
  9
$USERI2
 70
     0
  9
$USERI3
 70
     0
  9
$USERI4
 70
     0
  9
$USERI5
 70
     0
  9
$USERR1
 40
0.0
  9
$USERR2
 40
0.0
  9
$USERR3
 40
0.0
  9
$USERR4
 40
0.0
  9
$USERR5
 40
0.0
  9
$WORLDVIEW
 70
     1
  9
$SHADEDGE
 70
     3
  9
$SHADEDIF
 70
    70
  9
$TILEMODE
 70
     1
  9
$MAXACTVP
 70
    64
  9
$PINSBASE
 10
0.0
 20
0.0
 30
0.0
  9
$PLIMCHECK
 70
     0
  9
$PEXTMIN
 10
1.0000000000E+20
 20
1.0000000000E+20
 30
1.0000000000E+20
  9
$PEXTMAX
 10
-1.0000000000E+20
 20
-1.0000000000E+20
 30
-1.0000000000E+20
  9
$PLIMMIN
 10
0.0
 20
0.0
  9
$PLIMMAX
 10
420.0
 20
297.0
  9
$UNITMODE
 70
     0
  9
$VISRETAIN
 70
     1
  9
$PLINEGEN
 70
     0
  9
$PSLTSCALE
 70
     1
  9
$TREEDEPTH
 70
  3020
  9
$CMLSTYLE
  2
Standard
  9
$CMLJUST
 70
     0
  9
$CMLSCALE
 40
20.0
  9
$PROXYGRAPHICS
 70
     1
  9
$MEASUREMENT
 70
     1
  9
$CELWEIGHT
370
    -1
  9
$ENDCAPS
280
     0
  9
$JOINSTYLE
280
     0
  9
$LWDISPLAY
290
     1
  9
$INSUNITS
 70
     4
  9
$HYPERLINKBASE
  1

  9
$STYLESHEET
  1

  9
$XEDIT
290
     1
  9
$CEPSNTYPE
380
     0
  9
$PSTYLEMODE
290
     1
  9
$FINGERPRINTGUID
  2
{607a9aeb-6672-434f-a36a-38fcee6b9497}
  9
$VERSIONGUID
  2
{FAEB1C32-E019-11D5-929B-00C0DF256EC4}
  9
$EXTNAMES
290
     1
  9
$PSVPSCALE
 40
0.0
  9
$OLESTARTUP
290
     0
  0
ENDSEC
  0
SECTION
  2
CLASSES
  0
CLASS
  1
ACDBDICTIONARYWDFLT
  2
AcDbDictionaryWithDefault
  3
ObjectDBX Classes
 90
        0
280
     0
281
     0
  0
CLASS
  1
VISUALSTYLE
  2
AcDbVisualStyle
  3
ObjectDBX Classes
 90
     4095
280
     0
281
     0
  0
CLASS
  1
MATERIAL
  2
AcDbMaterial
  3
ObjectDBX Classes
 90
     1153
280
     0
281
     0
  0
CLASS
  1
SCALE
  2
AcDbScale
  3
ObjectDBX Classes
 90
     1153
280
     0
281
     0
  0
CLASS
  1
TABLESTYLE
  2
AcDbTableStyle
  3
ObjectDBX Classes
 90
     4095
280
     0
281
     0
  0
CLASS
  1
MLEADERSTYLE
  2
AcDbMLeaderStyle
  3
ACDB_MLEADERSTYLE_CLASS
 90
     4095
280
     0
281
     0
  0
CLASS
  1
SUN
  2
AcDbSun
  3
SCENEOE
 90
     1153
280
     0
281
     0
  0
CLASS
  1
ACDBPLACEHOLDER
  2
AcDbPlaceHolder
  3
ObjectDBX Classes
 90
        0
280
     0
281
     0
  0
CLASS
  1
LAYOUT
  2
AcDbLayout
  3
ObjectDBX Classes
 90
        0
280
     0
281
     0
  0
ENDSEC
  0
SECTION
  2
TABLES
  0
TABLE
  2
VPORT
  5
8
330
0
100
AcDbSymbolTable
 70
     1
  0
VPORT
  5
29
330
8
100
AcDbSymbolTableRecord
100
AcDbViewportTableRecord
  2
*Active
 70
     0
 10
0.0
 20
0.0
 11
1.0
 21
1.0
 12
10000.0
 22
5000.0
 13
0.0
 23
0.0
 14
10.0
 24
10.0
 15
10.0
 25
10.0
 16
0.0
 26
0.0
 36
1.0
 17
0.0
 27
0.0
 37
0.0
 40
10000.0
 41
2.0
 42
50.0
 43
0.0
 44
0.0
 50
0.0
 51
0.0
 71
     0
 72
  2000
 73
     1
 74
     3
 75
     0
 76
     0
 77
     0
 78
     0
281
     0
 65
     1
110
0.0
120
0.0
130
0.0
111
1.0
121
0.0
131
0.0
112
0.0
122
1.0
132
0.0
 79
     0
146
0.0
  0
ENDTAB
  0
TABLE
  2
LTYPE
  5
5
330
0
100
AcDbSymbolTable
 70
     6
  0
LTYPE
  5
14
330
5
100
AcDbSymbolTableRecord
100
AcDbLinetypeTableRecord
  2
ByBlock
 70
     0
  3

 72
    65
 73
     0
 40
0.0
  0
LTYPE
  5
15
330
5
100
AcDbSymbolTableRecord
100
AcDbLinetypeTableRecord
  2
ByLayer
 70
     0
  3

 72
    65
 73
     0
 40
0.0
  0
LTYPE
  5
16
330
5
100
AcDbSymbolTableRecord
100
AcDbLinetypeTableRecord
  2
Continuous
 70
     0
  3
Solid line
 72
    65
 73
     0
 40
0.0
  0
LTYPE
  5
6E
330
5
100
AcDbSymbolTableRecord
100
AcDbLinetypeTableRecord
  2
HIDDEN
 70
     0
  3
Hidden __ __ __ __ __ __ __ __ __ __ __ __ __ __
 72
    65
 73
     2
 40
1.905
 49
1.27
 74
     0
 49
-0.635
 74
     0
  0
LTYPE
  5
6F
330
5
100
AcDbSymbolTableRecord
100
AcDbLinetypeTableRecord
  2
PHANTOM
 70
     0
  3
Phantom ______  __  __  ______  __  __  ______
 72
    65
 73
     6
 40
12.7
 49
6.35
 74
     0
 49
-1.27
 74
     0
 49
1.27
 74
     0
 49
-1.27
 74
     0
 49
1.27
 74
     0
 49
-1.27
 74
     0
  0
LTYPE
  5
70
330
5
100
AcDbSymbolTableRecord
100
AcDbLinetypeTableRecord
  2
CENTER
 70
     0
  3
Center ____ _ ____ _ ____ _ ____ _ ____ _ ____
 72
    65
 73
     4
 40
10.16
 49
6.35
 74
     0
 49
-1.27
 74
     0
 49
1.27
 74
     0
 49
-1.27
 74
     0
  0
LTYPE
  5
71
330
5
100
AcDbSymbolTableRecord
100
AcDbLinetypeTableRecord
  2
CENTERX2
 70
     0
  3
Center (2x) ________  __  ________  __  _____
 72
    65
 73
     4
 40
20.32
 49
12.7
 74
     0
 49
-2.54
 74
     0
 49
2.54
 74
     0
 49
-2.54
 74
     0
  0
LTYPE
  5
72
330
5
100
AcDbSymbolTableRecord
100
AcDbLinetypeTableRecord
  2
DOT2
 70
     0
  3
Dot (.5x) ........................................
 72
    65
 73
     2
 40
0.635
 49
0.0
 74
     0
 49
-0.635
 74
     0
  0
ENDTAB
  0
TABLE
  2
LAYER
  5
2
330
0
100
AcDbSymbolTable
 70
    13
  0
LAYER
  5
10
330
2
100
AcDbSymbolTableRecord
100
AcDbLayerTableRecord
  2
0
 70
     0
 62
     7
  6
Continuous
370
    -3
390
F
  0
LAYER
  5
73
330
2
100
AcDbSymbolTableRecord
100
AcDbLayerTableRecord
  2
FORMAT
 70
     0
 62
     7
  6
Continuous
370
    -3
390
F
  0
LAYER
  5
74
330
2
100
AcDbSymbolTableRecord
100
AcDbLayerTableRecord
  2
OSA
 70
     0
 62
     7
  6
CENTER
370
    -3
390
F
  0
LAYER
  5
75
330
2
100
AcDbSymbolTableRecord
100
AcDbLayerTableRecord
  2
0_35
 70
     0
 62
     7
  6
Continuous
370
    35
390
F
  0
LAYER
  5
76
330
2
100
AcDbSymbolTableRecord
100
AcDbLayerTableRecord
  2
0_5
 70
     0
 62
     7
  6
Continuous
370
    50
390
F
  0
LAYER
  5
77
330
2
100
AcDbSymbolTableRecord
100
AcDbLayerTableRecord
  2
0_25
 70
     0
 62
     7
  6
Continuous
370
    25
390
F
  0
LAYER
  5
78
330
2
100
AcDbSymbolTableRecord
100
AcDbLayerTableRecord
  2
0_18
 70
     0
 62
     7
  6
Continuous
370
    -3
390
F
  0
LAYER
  5
79
330
2
100
AcDbSymbolTableRecord
100
AcDbLayerTableRecord
  2
SLD-0
 70
     0
 62
   179
  6
Continuous
370
    -3
390
F
  0
LAYER
  5
7A
330
2
100
AcDbSymbolTableRecord
100
AcDbLayerTableRecord
  2
KOTY
 70
     0
 62
     7
  6
Continuous
370
    -3
390
F
  0
LAYER
  5
7B
330
2
100
AcDbSymbolTableRecord
100
AcDbLayerTableRecord
  2
SILNA
 70
     0
 62
   179
  6
Continuous
370
    -3
390
F
  0
LAYER
  5
7C
330
2
100
AcDbSymbolTableRecord
100
AcDbLayerTableRecord
  2
0_18_1
 70
     0
 62
   179
  6
Continuous
370
    -3
390
F
  0
LAYER
  5
7D
330
2
100
AcDbSymbolTableRecord
100
AcDbLayerTableRecord
  2
0_35_1
 70
     0
 62
   179
  6
Continuous
370
    35
390
F
  0
LAYER
  5
7E
330
2
100
AcDbSymbolTableRecord
100
AcDbLayerTableRecord
  2
0_5_1
 70
     0
 62
   179
  6
Continuous
370
    50
390
F
  0
ENDTAB
  0
TABLE
  2
STYLE
  5
3
330
0
100
AcDbSymbolTable
 70
     1
  0
STYLE
  5
11
330
3
100
AcDbSymbolTableRecord
100
AcDbTextStyleTableRecord
  2
Standard
 70
     0
 40
0.0
 41
1.0
 50
0.0
 71
     0
 42
2.0
  3
txt
  4

  0
ENDTAB
  0
TABLE
  2
VIEW
  5
6
330
0
100
AcDbSymbolTable
 70
     0
  0
ENDTAB
  0
TABLE
  2
UCS
  5
7
330
0
100
AcDbSymbolTable
 70
     0
  0
ENDTAB
  0
TABLE
  2
APPID
  5
9
330
0
100
AcDbSymbolTable
 70
     1
  0
APPID
  5
12
330
9
100
AcDbSymbolTableRecord
100
AcDbRegAppTableRecord
  2
ACAD
 70
     0
  0
ENDTAB
  0
TABLE
  2
DIMSTYLE
  5
A
330
0
100
AcDbSymbolTable
 70
     1
100
AcDbDimStyleTable
  0
DIMSTYLE
105
27
330
A
100
AcDbSymbolTableRecord
100
AcDbDimStyleTableRecord
  2
ISO-25
 70
     0
 41
2.5
 42
0.625
 43
3.75
 44
1.25
 73
     0
 74
     0
 77
     1
 78
     8
140
2.5
141
2.5
143
0.0393700787
147
0.625
171
     3
172
     1
178
     0
271
     2
272
     2
274
     3
278
    44
283
     0
284
     8
340
11
  0
ENDTAB
  0
TABLE
  2
BLOCK_RECORD
  5
1
330
0
100
AcDbSymbolTable
 70
     1
  0
BLOCK_RECORD
  5
1F
330
1
100
AcDbSymbolTableRecord
100
AcDbBlockTableRecord
  2
*Model_Space
340
22
  0
BLOCK_RECORD
  5
1B
330
1
100
AcDbSymbolTableRecord
100
AcDbBlockTableRecord
  2
*Paper_Space
340
1E
  0
BLOCK_RECORD
  5
23
330
1
100
AcDbSymbolTableRecord
100
AcDbBlockTableRecord
  2
*Paper_Space0
340
26
  0
ENDTAB
  0
ENDSEC
  0
SECTION
  2
BLOCKS
  0
BLOCK
  5
20
330
1F
100
AcDbEntity
  8
0
100
AcDbBlockBegin
  2
*Model_Space
 70
     0
 10
0.0
 20
0.0
 30
0.0
  3
*Model_Space
  1

  0
ENDBLK
  5
21
330
1F
100
AcDbEntity
  8
0
100
AcDbBlockEnd
  0
BLOCK
  5
1C
330
1B
100
AcDbEntity
 67
     1
  8
0
100
AcDbBlockBegin
  2
*Paper_Space
 70
     0
 10
0.0
 20
0.0
 30
0.0
  3
*Paper_Space
  1

  0
ENDBLK
  5
1D
330
1B
100
AcDbEntity
 67
     1
  8
0
100
AcDbBlockEnd
  0
BLOCK
  5
24
330
23
100
AcDbEntity
  8
0
100
AcDbBlockBegin
  2
*Paper_Space0
 70
     0
 10
0.0
 20
0.0
 30
0.0
  3
*Paper_Space0
  1

  0
ENDBLK
  5
25
330
23
100
AcDbEntity
  8
0
100
AcDbBlockEnd
  0
ENDSEC
  0
SECTION
  2
ENTITIES
  0
LINE
  5
7F
330
1F
100
AcDbEntity
  8
0
  6
Continuous
 62
     7
370
    25
100
AcDbLine
 10
7288.2943917314
 20
4808.6559601294
 30
0.0
 11
6147.0943917314
 21
4808.6559601294
 31
0.0
  0
LINE
  5
80
330
1F
100
AcDbEntity
  8
0
  6
Continuous
 62
     7
370
    25
100
AcDbLine
 10
6147.0943917314
 20
4808.6559601294
 30
0.0
 11
6144.3943917314
 21
4808.6559601294
 31
0.0
  0
LINE
  5
81
330
1F
100
AcDbEntity
  8
0
  6
Continuous
 62
     7
370
    25
100
AcDbLine
 10
7290.9943917314
 20
4808.6559601294
 30
0.0
 11
7288.2943917314
 21
4808.6559601294
 31
0.0
  0
LINE
  5
82
330
1F
100
AcDbEntity
  8
0
  6
Continuous
 62
     7
370
    25
100
AcDbLine
 10
6681.9089349627
 20
4791.4559601294
 30
0.0
 11
6684.4443917314
 21
4789.9058165761
 31
0.0
  0
LINE
  5
83
330
1F
100
AcDbEntity
  8
0
  6
Continuous
 62
     7
370
    25
100
AcDbLine
 10
6686.1544278683
 20
4788.8603238956
 30
0.0
 11
6687.8093315653
 21
4787.848538434
 31
0.0
  0
LINE
  5
84
330
1F
100
AcDbEntity
  8
0
  6
Continuous
 62
     7
370
    25
100
AcDbLine
 10
6747.5794518974
 20
4787.848538434
 30
0.0
 11
6749.2343555945
 21
4788.8603238956
 31
0.0
  0
LINE
  5
85
330
1F
100
AcDbEntity
  8
0
  6
Continuous
 62
     7
370
    25
100
AcDbLine
 10
6750.9443917314
 20
4789.9058165761
 30
0.0
 11
6753.4798485001
 21
4791.4559601294
 31
0.0
  0
LINE
  5
86
330
1F
100
AcDbEntity
  8
0
  6
Continuous
 62
     7
370
    25
100
AcDbLine
 10
6684.4443917314
 20
4789.9058165761
 30
0.0
 11
6684.4443917314
 21
4788.8603238956
 31
0.0
  0
LINE
  5
87
330
1F
100
AcDbEntity
  8
0
  6
Continuous
 62
     7
370
    25
100
AcDbLine
 10
6750.9443917314
 20
4788.8603238956
 30
0.0
 11
6750.9443917314
 21
4789.9058165761
 31
0.0
  0
LINE
  5
88
330
1F
100
AcDbEntity
  8
0
  6
Continuous
 62
     7
370
    25
100
AcDbLine
 10
6677.6943917314
 20
4787.3522492817
 30
0.0
 11
6677.6943917314
 21
4786.8559601294
 31
0.0
  0
LINE
  5
89
330
1F
100
AcDbEntity
  8
0
  6
Continuous
 62
     7
370
    25
100
AcDbLine
 10
6757.6943917314
 20
4786.8559601294
 30
0.0
 11
6757.6943917314
 21
4787.3522492817
 31
0.0
  0
ARC
  5
8A
330
1F
100
AcDbEntity
  8
0
  6
Continuous
 62
     7
370
    25
100
AcDbCircle
 10
6678.3447337789
 20
4787.4070188297
 30
0.0
 40
0.0547695479945105
100
AcDbArc
 50
270.0
 51
329.9999999998
  0
ARC
  5
8B
330
1F
100
AcDbEntity
  8
0
  6
Continuous
 62
     7
370
    25
100
AcDbCircle
 10
6757.0440496839
 20
4787.4070188297
 30
0.0
 40
0.05476954799542
100
AcDbArc
 50
210.000000001
 51
270.0
  0
LINE
  5
8C
330
1F
100
AcDbEntity
  8
0
  6
Continuous
 62
     7
370
    25
100
AcDbLine
 10
6756.996617864
 20
4787.3796340557
 30
0.0
 11
6756.7575064788
 21
4787.7937871235
 31
0.0
  0
LINE
  5
8D
330
1F
100
AcDbEntity
  8
0
  6
Continuous
 62
     7
370
    25
100
AcDbLine
 10
6678.631276984
 20
4787.7937871235
 30
0.0
 11
6678.3921655988
 21
4787.3796340557
 31
0.0
  0
ARC
  5
8E
330
1F
100
AcDbEntity
  8
0
  6
Continuous
 62
     7
370
    25
100
AcDbCircle
 10
6678.7261090355
 20
4787.7390358131
 30
0.0
 40
0.1095026209371498
100
AcDbArc
 50
90.0
 51
150.0000000001
  0
ARC
  5
8F
330
1F
100
AcDbEntity
  8
0
  6
Continuous
 62
     7
370
    25
100
AcDbCircle
 10
6756.6626744273
 20
4787.7390358131
 30
0.0
 40
0.1095026209371498
100
AcDbArc
 50
29.9999999999
 51
90.0
  0
LINE
  5
90
330
1F
100
AcDbEntity
  8
0
  6
Continuous
 62
     7
370
    25
100
AcDbLine
 10
6756.6626744273
 20
4787.848538434
 30
0.0
 11
6678.7261090355
 21
4787.848538434
 31
0.0
  0
LINE
  5
91
330
1F
100
AcDbEntity
  8
0
  6
Continuous
 62
     7
370
    25
100
AcDbLine
 10
6764.6161399543
 20
4769.889194625
 30
0.0
 11
6764.6943917314
 21
4778.8559601294
 31
0.0
  0
ARC
  5
92
330
1F
100
AcDbEntity
  8
0
  6
Continuous
 62
     7
370
    25
100
AcDbCircle
 10
6757.7329499505
 20
4769.9178894088
 30
0.0
 40
6.853085275243126
100
AcDbArc
 50
305.7382565021
 51
359.768651806
  0
ARC
  5
93
330
1F
100
AcDbEntity
  8
0
  6
Continuous
 62
     7
370
    25
100
AcDbCircle
 10
6764.6943917314
 20
4781.8559601294
 30
0.0
 40
2.000000000000909
100
AcDbArc
 50
0.0
 51
90.0
  0
LINE
  5
94
330
1F
100
AcDbEntity
  8
0
  6
Continuous
 62
     7
370
    25
100
AcDbLine
 10
6766.6943917314
 20
4778.8559601294
 30
0.0
 11
6766.6943917314
 21
4781.8559601294
 31
0.0
  0
LINE
  5
95
330
1F
100
AcDbEntity
  8
0
  6
Continuous
 62
     7
370
    25
100
AcDbLine
 10
6759.4443917314
 20
4783.8559601294
 30
0.0
 11
6759.4443917314
 21
4786.8559601294
 31
0.0
  0
LINE
  5
96
330
1F
100
AcDbEntity
  8
0
  6
Continuous
 62
     7
370
    25
100
AcDbLine
 10
6675.9443917314
 20
4786.8559601294
 30
0.0
 11
6675.9443917314
 21
4783.8559601294
 31
0.0
  0
LINE
  5
97
330
1F
100
AcDbEntity
  8
0
  6
Continuous
 62
     7
370
    25
100
AcDbLine
 10
6749.9351367136
 20
4711.6727214912
 30
0.0
 11
6751.1370000524
 21
4757.570030685
 31
0.0
  0
ARC
  5
98
330
1F
100
AcDbEntity
  8
0
  6
Continuous
 62
     7
370
    25
100
AcDbCircle
 10
6742.9375354388
 20
4711.8559601294
 30
0.0
 40
7.000000000000909
100
AcDbArc
 50
270.0
 51
358.5
  0
ARC
  5
99
330
1F
100
AcDbEntity
  8
0
  6
Continuous
 62
     7
370
    25
100
AcDbCircle
 10
6586.1285721279
 20
4751.7068125779
 30
0.0
 40
27.0
100
AcDbArc
 50
73.1772087534
 51
90.0
  0
ARC
  5
9A
330
1F
100
AcDbEntity
  8
0
  6
Continuous
 62
     7
370
    25
100
AcDbCircle
 10
6586.1285721279
 20
4751.7068125779
 30
0.0
 40
27.00000000000061
100
AcDbArc
 50
228.2942528904
 51
287.8227912466
  0
ARC
  5
9B
330
1F
100
AcDbEntity
  8
0
  6
Continuous
 62
     7
370
    25
100
AcDbCircle
 10
6586.1285721279
 20
4751.7068125779
 30
0.0
 40
27.0
100
AcDbArc
 50
90.0
 51
132.7057471096
  0
ARC
  5
9C
330
1F
100
AcDbEntity
  8
0
  6
Continuous
 62
     7
370
    25
100
AcDbCircle
 10
6650.6943917314
 20
4776.7843390322
 30
0.0
 40
2.000000000000349
100
AcDbArc
 50
0.5
 51
92.0154937467
  0
ARC
  5
9D
330
1F
100
AcDbEntity
  8
0
  6
Continuous
 62
     7
370
    25
100
AcDbCircle
 10
6651.1222212284
 20
4727.759934478
 30
0.0
 40
1.99999999999944
100
AcDbArc
 50
268.9845062533
 51
0.5
  0
LINE
  5
9E
330
1F
100
AcDbEntity
  8
0
  6
Continuous
 62
     7
370
    25
100
AcDbLine
 10
6653.1221450746
 20
4727.777387549
 30
0.0
 11
6652.6943155775
 21
4776.8017921032
 31
0.0
  0
LINE
  5
9F
330
1F
100
AcDbEntity
  8
0
  6
Continuous
 62
     7
370
    25
100
AcDbLine
 10
6650.6240522362
 20
4778.7831017383
 30
0.0
 11
6625.6240522362
 21
4777.9033137705
 31
0.0
  0
LINE
  5
A0
330
1F
100
AcDbEntity
  8
0
  6
Continuous
 62
     7
370
    25
100
AcDbLine
 10
6626.0752288693
 20
4726.2035924106
 30
0.0
 11
6651.0867756654
 21
4725.7602485997
 31
0.0
  0
ARC
  5
A1
330
1F
100
AcDbEntity
  8
0
  6
Continuous
 62
     7
370
    25
100
AcDbCircle
 10
6625.6943917314
 20
4775.9045510644
 30
0.0
 40
2.000000000000287
100
AcDbArc
 50
92.0154937467
 51
180.0
  0
ARC
  5
A2
330
1F
100
AcDbEntity
  8
0
  6
Continuous
 62
     7
370
    25
100
AcDbCircle
 10
6626.1106744323
 20
4728.2032782889
 30
0.0
 40
2.00000000000027
100
AcDbArc
 50
181.0
 51
268.9845062533
  0
LINE
  5
A3
330
1F
100
AcDbEntity
  8
0
  6
Continuous
 62
     7
370
    25
100
AcDbLine
 10
6623.6943917314
 20
4775.9045510644
 30
0.0
 11
6623.6943917314
 21
4772.0354060868
 31
0.0
  0
LINE
  5
A4
330
1F
100
AcDbEntity
  8
0
  6
Continuous
 62
     7
370
    25
100
AcDbLine
 10
6624.0434531513
 20
4732.0369291642
 30
0.0
 11
6624.110979042
 21
4728.1683734761
 31
0.0
  0
ARC
  5
A5
330
1F
100
AcDbEntity
  8
0
  6
Continuous
 62
     7
370
    25
100
AcDbCircle
 10
6602.1144356414
 20
4774.8113824841
 30
0.0
 40
0.250000000000034
100
AcDbArc
 50
90.0
 51
168.5000000001
  0
ARC
  5
A6
330
1F
100
AcDbEntity
  8
0
  6
Continuous
 62
     7
370
    25
100
AcDbCircle
 10
6602.5152312616
 20
4728.8847533969
 30
0.0
 40
0.2499999999996683
100
AcDbArc
 50
192.4999999998
 51
271.0000000001
  0
LINE
  5
A7
330
1F
100
AcDbEntity
  8
0
  6
Continuous
 62
     7
370
    25
100
AcDbLine
 10
6602.5195943632
 20
4728.6347914731
 30
0.0
 11
6603.3572853866
 21
4728.6494134243
 31
0.0
  0
LINE
  5
A8
330
1F
100
AcDbEntity
  8
0
  6
Continuous
 62
     7
370
    25
100
AcDbLine
 10
6602.9522542688
 20
4775.0613824841
 30
0.0
 11
6602.1144356414
 21
4775.0613824841
 31
0.0
  0
ARC
  5
A9
330
1F
100
AcDbEntity
  8
0
  6
Continuous
 62
     7
370
    25
100
AcDbCircle
 10
6602.9522542688
 20
4774.8113824841
 30
0.0
 40
0.25
100
AcDbArc
 50
10.5
 51
90.0
  0
ARC
  5
AA
330
1F
100
AcDbEntity
  8
0
  6
Continuous
 62
     7
370
    25
100
AcDbCircle
 10
6603.352922285
 20
4728.8993753481
 30
0.0
 40
0.250000000000231
100
AcDbArc
 50
271.0000000001
 51
350.5000000002
  0
LINE
  5
AB
330
1F
100
AcDbEntity
  8
0
  6
Continuous
 62
     7
370
    25
100
AcDbLine
 10
6601.8694544653
 20
4774.8612244677
 30
0.0
 11
6601.4532620178
 21
4772.815573233
 31
0.0
  0
LINE
  5
AC
330
1F
100
AcDbEntity
  8
0
  6
Continuous
 62
     7
370
    25
100
AcDbLine
 10
6601.8193266636
 20
4730.8687196058
 30
0.0
 11
6602.2711572598
 21
4728.8306434934
 31
0.0
  0
LINE
  5
AD
330
1F
100
AcDbEntity
  8
0
  6
Continuous
 62
     7
370
    25
100
AcDbLine
 10
6603.5994936854
 20
4728.8581134466
 30
0.0
 11
6604.1023234377
 21
4731.8629055616
 31
0.0
  0
LINE
  5
AE
330
1F
100
AcDbEntity
  8
0
  6
Continuous
 62
     7
370
    25
100
AcDbLine
 10
6603.7532620178
 20
4771.8613824841
 30
0.0
 11
6603.1980679956
 21
4774.8569413655
 31
0.0
  0
ARC
  5
AF
330
1F
100
AcDbEntity
  8
0
  6
Continuous
 62
     7
370
    25
100
AcDbCircle
 10
6586.1285721279
 20
4751.7068125779
 30
0.0
 40
23.99999999999995
100
AcDbArc
 50
57.0896848103
 51
70.9987276534
  0
ARC
  5
B0
330
1F
100
AcDbEntity
  8
0
  6
Continuous
 62
     7
370
    25
100
AcDbCircle
 10
6586.1285721279
 20
4751.7068125779
 30
0.0
 40
23.99999999999999
100
AcDbArc
 50
290.0012723466
 51
303.9103151897
  0
LINE
  5
B1
330
1F
100
AcDbEntity
  8
0
  6
Continuous
 62
     7
370
    25
100
AcDbLine
 10
6691.6344241618
 20
4734.2168226319
 30
0.0
 11
6692.2311875522
 21
4711.4273481883
 31
0.0
  0
LWPOLYLINE
  5
B2
330
1F
100
AcDbEntity
  8
0
  6
Continuous
 62
     7
370
    25
100
AcDbPolyline
 90
        7
 70
   128
 43
0.0
 10
6692.230265625
 20
4711.466773299
 10
6692.405489188
 20
4710.3079009267
 10
6693.3579893542
 20
4708.408488546
 10
6695.110231512
 20
4706.6698197813
 10
6697.0481423623
 20
4705.5507841054
 10
6698.2293084966
 20
4705.133628111
 10
6700.2615634311
 20
4704.8559601294
  0
LINE
  5
B3
330
1F
100
AcDbEntity
  8
0
  6
Continuous
 62
     7
370
    25
100
AcDbLine
 10
6658.7511677863
 20
4772.3413419366
 30
0.0
 11
6652.7336996161
 21
4772.2888282874
 31
0.0
  0
LINE
  5
B4
330
1F
100
AcDbEntity
  8
0
  6
Continuous
 62
     7
370
    25
100
AcDbLine
 10
6653.082761036
 20
4732.2903513648
 30
0.0
 11
6660.3255037209
 21
4732.3535578227
 31
0.0
  0
ARC
  5
B5
330
1F
100
AcDbEntity
  8
0
  6
Continuous
 62
     7
370
    25
100
AcDbCircle
 10
6599.9833749608
 20
4773.1146251346
 30
0.0
 40
1.500000000000395
100
AcDbArc
 50
237.0896848103
 51
348.5
  0
ARC
  5
B6
330
1F
100
AcDbEntity
  8
0
  6
Continuous
 62
     7
370
    25
100
AcDbCircle
 10
6600.3548826529
 20
4730.5440601849
 30
0.0
 40
1.500000000000899
100
AcDbArc
 50
12.5
 51
123.9103151897
  0
LINE
  5
B7
330
1F
100
AcDbEntity
  8
0
  6
Continuous
 62
     7
370
    25
100
AcDbLine
 10
6623.6943917314
 20
4772.0354060867
 30
0.0
 11
6603.7532620178
 21
4771.8613824841
 31
0.0
  0
LINE
  5
B8
330
1F
100
AcDbEntity
  8
0
  6
Continuous
 62
     7
370
    25
100
AcDbLine
 10
6604.1023234377
 20
4731.8629055616
 30
0.0
 11
6624.0434531513
 21
4732.0369291642
 31
0.0
  0
LINE
  5
B9
330
1F
100
AcDbEntity
  8
0
  6
Continuous
 62
     7
370
    25
100
AcDbLine
 10
6567.8162707926
 20
4771.5476699133
 30
0.0
 11
6499.2649216691
 21
4770.9494313527
 31
0.0
  0
LINE
  5
BA
330
1F
100
AcDbEntity
  8
0
  6
Continuous
 62
     7
370
    25
100
AcDbLine
 10
6499.6139814276
 20
4730.9511448148
 30
0.0
 11
6568.1653305511
 21
4731.5493833754
 31
0.0
  0
LINE
  5
BB
330
1F
100
AcDbEntity
  8
0
  6
Continuous
 62
     7
370
    25
100
AcDbLine
 10
6499.2649216691
 20
4770.9494313527
 30
0.0
 11
6495.7791914963
 21
4770.6337017812
 31
0.0
  0
LINE
  5
BC
330
1F
100
AcDbEntity
  8
0
  6
Continuous
 62
     7
370
    25
100
AcDbLine
 10
6496.1232719076
 20
4731.2059919194
 30
0.0
 11
6499.6139814276
 21
4730.9511448148
 31
0.0
  0
LINE
  5
BD
330
1F
100
AcDbEntity
  8
0
  6
Continuous
 62
     7
370
    25
100
AcDbLine
 10
6495.7791914963
 20
4770.6337017812
 30
0.0
 11
6495.7791914963
 21
4768.4189166503
 31
0.0
  0
LINE
  5
BE
330
1F
100
AcDbEntity
  8
0
  6
Continuous
 62
     7
370
    25
100
AcDbLine
 10
6496.0846185773
 20
4733.4204397277
 30
0.0
 11
6496.1232719076
 21
4731.2059919194
 31
0.0
  0
ARC
  5
BF
330
1F
100
AcDbEntity
  8
0
  6
Continuous
 62
     7
370
    25
100
AcDbCircle
 10
6658.7337147153
 20
4774.3412657827
 30
0.0
 40
2.000000000000349
100
AcDbArc
 50
270.5
 51
0.5
  0
ARC
  5
C0
330
1F
100
AcDbEntity
  8
0
  6
Continuous
 62
     7
370
    25
100
AcDbCircle
 10
6660.5062752929
 20
4730.7232560658
 30
0.0
 40
1.612651671725335
100
AcDbArc
 50
48.4360533117
 51
96.2068831894
  0
ARC
  5
C1
330
1F
100
AcDbEntity
  8
0
  6
Continuous
 62
     7
370
    25
100
AcDbCircle
 10
6666.6406878179
 20
4739.1954507952
 30
0.0
 40
8.836610069986833
100
AcDbArc
 50
235.0092265524
 51
282.7578591479
  0
LWPOLYLINE
  5
C2
330
1F
100
AcDbEntity
  8
0
  6
Continuous
 62
     7
370
    25
100
AcDbPolyline
 90
        3
 70
   128
 43
0.0
 10
6668.6390081905
 20
4730.5813480715
 10
6668.6444740158
 20
4730.5818547398
 10
6668.6341198251
 20
4730.5809924208
  0
LINE
  5
C3
330
1F
100
AcDbEntity
  8
0
  6
Continuous
 62
     7
370
    25
100
AcDbLine
 10
7274.9943917314
 20
4773.6559601294
 30
0.0
 11
7273.9943917314
 21
4774.6559601294
 31
0.0
  0
LINE
  5
C4
330
1F
100
AcDbEntity
  8
0
  6
Continuous
 62
     7
370
    25
100
AcDbLine
 10
7265.9943917314
 20
4774.6559601294
 30
0.0
 11
7264.9943917314
 21
4773.6559601294
 31
0.0
  0
LINE
  5
C5
330
1F
100
AcDbEntity
  8
0
  6
Continuous
 62
     7
370
    25
100
AcDbLine
 10
7274.9943917314
 20
4694.6559601294
 30
0.0
 11
7274.9943917314
 21
4764.6559601294
 31
0.0
  0
LINE
  5
C6
330
1F
100
AcDbEntity
  8
0
  6
Continuous
 62
     7
370
    25
100
AcDbLine
 10
7264.9943917314
 20
4764.6559601294
 30
0.0
 11
7264.9943917314
 21
4694.6559601294
 31
0.0
  0
LINE
  5
C7
330
1F
100
AcDbEntity
  8
0
  6
Continuous
 62
     7
370
    25
100
AcDbLine
 10
6170.3943917314
 20
4689.6559601294
 30
0.0
 11
6170.3943917314
 21
4764.6559601294
 31
0.0
  0
LINE
  5
C8
330
1F
100
AcDbEntity
  8
0
  6
Continuous
 62
     7
370
    25
100
AcDbLine
 10
6160.3943917314
 20
4764.6559601294
 30
0.0
 11
6160.3943917314
 21
4689.6559601294
 31
0.0
  0
LINE
  5
C9
330
1F
100
AcDbEntity
  8
0
  6
Continuous
 62
     7
370
    25
100
AcDbLine
 10
6170.3943917314
 20
4773.6559601294
 30
0.0
 11
6169.3943917314
 21
4774.6559601294
 31
0.0
  0
LINE
  5
CA
330
1F
100
AcDbEntity
  8
0
  6
Continuous
 62
     7
370
    25
100
AcDbLine
 10
6161.3943917314
 20
4774.6559601294
 30
0.0
 11
6160.3943917314
 21
4773.6559601294
 31
0.0
  0
LINE
  5
CB
330
1F
100
AcDbEntity
  8
0
  6
Continuous
 62
     7
370
    25
100
AcDbLine
 10
6156.8943917314
 20
4773.6559601294
 30
0.0
 11
6156.8943917314
 21
4766.6559601294
 31
0.0
  0
LINE
  5
CC
330
1F
100
AcDbEntity
  8
0
  6
Continuous
 62
     7
370
    25
100
AcDbLine
 10
6165.3943917314
 20
4773.6559601294
 30
0.0
 11
6156.8943917314
 21
4773.6559601294
 31
0.0
  0
LINE
  5
CD
330
1F
100
AcDbEntity
  8
0
  6
Continuous
 62
     7
370
    25
100
AcDbLine
 10
6165.3943917314
 20
4773.6559601294
 30
0.0
 11
6165.3943917314
 21
4766.6559601294
 31
0.0
  0
LINE
  5
CE
330
1F
100
AcDbEntity
  8
0
  6
Continuous
 62
     7
370
    25
100
AcDbLine
 10
6165.3943917314
 20
4766.6559601294
 30
0.0
 11
6163.3624145659
 21
4766.6559601294
 31
0.0
  0
LINE
  5
CF
330
1F
100
AcDbEntity
  8
0
  6
Continuous
 62
     7
370
    25
100
AcDbLine
 10
6173.8943917314
 20
4773.6559601294
 30
0.0
 11
6165.3943917314
 21
4773.6559601294
 31
0.0
  0
LINE
  5
D0
330
1F
100
AcDbEntity
  8
0
  6
Continuous
 62
     7
370
    25
100
AcDbLine
 10
6173.8943917314
 20
4773.6559601294
 30
0.0
 11
6173.8943917314
 21
4766.6559601294
 31
0.0
  0
LINE
  5
D1
330
1F
100
AcDbEntity
  8
0
  6
Continuous
 62
     7
370
    25
100
AcDbLine
 10
6167.4263688969
 20
4766.6559601294
 30
0.0
 11
6165.3943917314
 21
4766.6559601294
 31
0.0
  0
LINE
  5
D2
330
1F
100
AcDbEntity
  8
0
  6
Continuous
 62
     7
370
    25
100
AcDbLine
 10
7269.9943917314
 20
4773.6559601294
 30
0.0
 11
7269.9943917314
 21
4766.6559601294
 31
0.0
  0
LINE
  5
D3
330
1F
100
AcDbEntity
  8
0
  6
Continuous
 62
     7
370
    25
100
AcDbLine
 10
7278.4943917314
 20
4773.6559601294
 30
0.0
 11
7278.4943917314
 21
4766.6559601294
 31
0.0
  0
LINE
  5
D4
330
1F
100
AcDbEntity
  8
0
  6
Continuous
 62
     7
370
    25
100
AcDbLine
 10
7269.9943917314
 20
4766.6559601294
 30
0.0
 11
7272.0263688969
 21
4766.6559601294
 31
0.0
  0
LINE
  5
D5
330
1F
100
AcDbEntity
  8
0
  6
Continuous
 62
     7
370
    25
100
AcDbLine
 10
7269.9943917314
 20
4773.6559601294
 30
0.0
 11
7278.4943917314
 21
4773.6559601294
 31
0.0
  0
LINE
  5
D6
330
1F
100
AcDbEntity
  8
0
  6
Continuous
 62
     7
370
    25
100
AcDbLine
 10
7261.4943917314
 20
4773.6559601294
 30
0.0
 11
7261.4943917314
 21
4766.6559601294
 31
0.0
  0
LINE
  5
D7
330
1F
100
AcDbEntity
  8
0
  6
Continuous
 62
     7
370
    25
100
AcDbLine
 10
7267.9624145659
 20
4766.6559601294
 30
0.0
 11
7269.9943917314
 21
4766.6559601294
 31
0.0
  0
LINE
  5
D8
330
1F
100
AcDbEntity
  8
0
  6
Continuous
 62
     7
370
    25
100
AcDbLine
 10
7261.4943917314
 20
4773.6559601294
 30
0.0
 11
7269.9943917314
 21
4773.6559601294
 31
0.0
  0
LINE
  5
D9
330
1F
100
AcDbEntity
  8
0
  6
Continuous
 62
     7
370
    25
100
AcDbLine
 10
6175.3943917314
 20
4766.6559601294
 30
0.0
 11
6175.3943917314
 21
4764.6559601294
 31
0.0
  0
LINE
  5
DA
330
1F
100
AcDbEntity
  8
0
  6
Continuous
 62
     7
370
    25
100
AcDbLine
 10
6175.3943917314
 20
4764.6559601294
 30
0.0
 11
6155.3943917314
 21
4764.6559601294
 31
0.0
  0
LINE
  5
DB
330
1F
100
AcDbEntity
  8
0
  6
Continuous
 62
     7
370
    25
100
AcDbLine
 10
6155.3943917314
 20
4766.6559601294
 30
0.0
 11
6155.3943917314
 21
4764.6559601294
 31
0.0
  0
LINE
  5
DC
330
1F
100
AcDbEntity
  8
0
  6
Continuous
 62
     7
370
    25
100
AcDbLine
 10
6175.3943917314
 20
4766.6559601294
 30
0.0
 11
6167.4263688969
 21
4766.6559601294
 31
0.0
  0
LINE
  5
DD
330
1F
100
AcDbEntity
  8
0
  6
Continuous
 62
     7
370
    25
100
AcDbLine
 10
6163.3624145659
 20
4766.6559601294
 30
0.0
 11
6155.3943917314
 21
4766.6559601294
 31
0.0
  0
LINE
  5
DE
330
1F
100
AcDbEntity
  8
0
  6
Continuous
 62
     7
370
    25
100
AcDbLine
 10
7259.9943917314
 20
4764.6559601294
 30
0.0
 11
7279.9943917314
 21
4764.6559601294
 31
0.0
  0
LINE
  5
DF
330
1F
100
AcDbEntity
  8
0
  6
Continuous
 62
     7
370
    25
100
AcDbLine
 10
7272.0263688969
 20
4766.6559601294
 30
0.0
 11
7279.9943917314
 21
4766.6559601294
 31
0.0
  0
LINE
  5
E0
330
1F
100
AcDbEntity
  8
0
  6
Continuous
 62
     7
370
    25
100
AcDbLine
 10
7259.9943917314
 20
4766.6559601294
 30
0.0
 11
7267.9624145659
 21
4766.6559601294
 31
0.0
  0
LINE
  5
E1
330
1F
100
AcDbEntity
  8
0
  6
Continuous
 62
     7
370
    25
100
AcDbLine
 10
7259.9943917314
 20
4766.6559601294
 30
0.0
 11
7259.9943917314
 21
4764.6559601294
 31
0.0
  0
LINE
  5
E2
330
1F
100
AcDbEntity
  8
0
  6
Continuous
 62
     7
370
    25
100
AcDbLine
 10
7279.9943917314
 20
4766.6559601294
 30
0.0
 11
7279.9943917314
 21
4764.6559601294
 31
0.0
  0
LINE
  5
E3
330
1F
100
AcDbEntity
  8
0
  6
Continuous
 62
     7
370
    25
100
AcDbLine
 10
7259.9943917314
 20
4766.905846147
 30
0.0
 11
7259.9943917314
 21
4766.6559601294
 31
0.0
  0
LINE
  5
E4
330
1F
100
AcDbEntity
  8
0
  6
Continuous
 62
     7
370
    25
100
AcDbLine
 10
7279.9943917314
 20
4766.905846147
 30
0.0
 11
7279.9943917314
 21
4766.6559601294
 31
0.0
  0
LINE
  5
E5
330
1F
100
AcDbEntity
  8
0
  6
Continuous
 62
     7
370
    25
100
AcDbLine
 10
6175.3943917314
 20
4766.905846147
 30
0.0
 11
6175.3943917314
 21
4766.6559601294
 31
0.0
  0
LINE
  5
E6
330
1F
100
AcDbEntity
  8
0
  6
Continuous
 62
     7
370
    25
100
AcDbLine
 10
6155.3943917314
 20
4766.905846147
 30
0.0
 11
6155.3943917314
 21
4766.6559601294
 31
0.0
  0
LINE
  5
E7
330
1F
100
AcDbEntity
  8
0
  6
Continuous
 62
     7
370
    25
100
AcDbLine
 10
7259.9943917314
 20
4790.7063020766
 30
0.0
 11
7279.9943917314
 21
4790.7063020766
 31
0.0
  0
LINE
  5
E8
330
1F
100
AcDbEntity
  8
0
  6
Continuous
 62
     7
370
    25
100
AcDbLine
 10
7259.9943917314
 20
4790.7063020766
 30
0.0
 11
7259.9943917314
 21
4766.905846147
 31
0.0
  0
LINE
  5
E9
330
1F
100
AcDbEntity
  8
0
  6
Continuous
 62
     7
370
    25
100
AcDbLine
 10
7279.9943917314
 20
4790.7063020766
 30
0.0
 11
7279.9943917314
 21
4766.905846147
 31
0.0
  0
LINE
  5
EA
330
1F
100
AcDbEntity
  8
0
  6
Continuous
 62
     7
370
    25
100
AcDbLine
 10
6175.3943917314
 20
4790.7063020766
 30
0.0
 11
6155.3943917314
 21
4790.7063020766
 31
0.0
  0
LINE
  5
EB
330
1F
100
AcDbEntity
  8
0
  6
Continuous
 62
     7
370
    25
100
AcDbLine
 10
6175.3943917314
 20
4790.7063020766
 30
0.0
 11
6175.3943917314
 21
4766.905846147
 31
0.0
  0
LINE
  5
EC
330
1F
100
AcDbEntity
  8
0
  6
Continuous
 62
     7
370
    25
100
AcDbLine
 10
6155.3943917314
 20
4790.7063020766
 30
0.0
 11
6155.3943917314
 21
4766.905846147
 31
0.0
  0
LINE
  5
ED
330
1F
100
AcDbEntity
  8
0
  6
Continuous
 62
     7
370
    25
100
AcDbLine
 10
6115.3943917314
 20
4791.4559601294
 30
0.0
 11
7319.9943917314
 21
4791.4559601294
 31
0.0
  0
LINE
  5
EE
330
1F
100
AcDbEntity
  8
0
  6
Continuous
 62
     7
370
    25
100
AcDbLine
 10
7319.9943917314
 20
4792.6559601294
 30
0.0
 11
7319.9943917314
 21
4791.4559601294
 31
0.0
  0
LINE
  5
EF
330
1F
100
AcDbEntity
  8
0
  6
Continuous
 62
     7
370
    25
100
AcDbLine
 10
6115.3943917314
 20
4792.6559601294
 30
0.0
 11
7319.9943917314
 21
4792.6559601294
 31
0.0
  0
LINE
  5
F0
330
1F
100
AcDbEntity
  8
0
  6
Continuous
 62
     7
370
    25
100
AcDbLine
 10
6115.3943917314
 20
4792.6559601294
 30
0.0
 11
6115.3943917314
 21
4791.4559601294
 31
0.0
  0
LINE
  5
F1
330
1F
100
AcDbEntity
  8
0
  6
Continuous
 62
     7
370
    25
100
AcDbLine
 10
7288.2943917314
 20
4806.604418798
 30
0.0
 11
6147.0943917314
 21
4806.604418798
 31
0.0
  0
LINE
  5
F2
330
1F
100
AcDbEntity
  8
0
  6
Continuous
 62
     7
370
    25
100
AcDbLine
 10
6147.0943917314
 20
4806.604418798
 30
0.0
 11
6142.7311362813
 21
4806.604418798
 31
0.0
  0
ARC
  5
F3
330
1F
100
AcDbEntity
  8
0
  6
Continuous
 62
     7
370
    25
100
AcDbCircle
 10
6144.3943917314
 20
4806.9559601294
 30
0.0
 40
1.700000000000831
100
AcDbArc
 50
90.0
 51
191.9342465732
  0
LINE
  5
F4
330
1F
100
AcDbEntity
  8
0
  6
Continuous
 62
     7
370
    25
100
AcDbLine
 10
7292.6576471815
 20
4806.604418798
 30
0.0
 11
7288.2943917314
 21
4806.604418798
 31
0.0
  0
ARC
  5
F5
330
1F
100
AcDbEntity
  8
0
  6
Continuous
 62
     7
370
    25
100
AcDbCircle
 10
7290.9943917314
 20
4806.9559601294
 30
0.0
 40
1.700000000000728
100
AcDbArc
 50
348.0657534268
 51
90.0
  0
LINE
  5
F6
330
1F
100
AcDbEntity
  8
0
  6
Continuous
 62
     7
370
    25
100
AcDbLine
 10
7288.2943917314
 20
4802.3973608948
 30
0.0
 11
6147.0943917314
 21
4802.3973608948
 31
0.0
  0
LINE
  5
F7
330
1F
100
AcDbEntity
  8
0
  6
Continuous
 62
     7
370
    25
100
AcDbLine
 10
6147.0943917314
 20
4806.604418798
 30
0.0
 11
6147.0943917314
 21
4802.3973608948
 31
0.0
  0
LINE
  5
F8
330
1F
100
AcDbEntity
  8
0
  6
Continuous
 62
     7
370
    25
100
AcDbLine
 10
7288.2943917314
 20
4806.604418798
 30
0.0
 11
7288.2943917314
 21
4802.3973608948
 31
0.0
  0
LINE
  5
F9
330
1F
100
AcDbEntity
  8
0
  6
Continuous
 62
     7
370
    25
100
AcDbLine
 10
7291.768454402
 20
4802.3973608948
 30
0.0
 11
7288.2943917314
 21
4802.3973608948
 31
0.0
  0
LINE
  5
FA
330
1F
100
AcDbEntity
  8
0
  6
Continuous
 62
     7
370
    25
100
AcDbLine
 10
7292.6576471815
 20
4806.604418798
 30
0.0
 11
7291.768454402
 21
4802.3973608948
 31
0.0
  0
LINE
  5
FB
330
1F
100
AcDbEntity
  8
0
  6
Continuous
 62
     7
370
    25
100
AcDbLine
 10
6147.0943917314
 20
4802.3973608948
 30
0.0
 11
6143.6203290607
 21
4802.3973608948
 31
0.0
  0
LINE
  5
FC
330
1F
100
AcDbEntity
  8
0
  6
Continuous
 62
     7
370
    25
100
AcDbLine
 10
6142.7311362813
 20
4806.604418798
 30
0.0
 11
6143.6203290607
 21
4802.3973608948
 31
0.0
  0
LINE
  5
FD
330
1F
100
AcDbEntity
  8
0
  6
Continuous
 62
     7
370
    25
100
AcDbLine
 10
6144.8943917314
 20
4802.3973608948
 30
0.0
 11
6144.8943917314
 21
4792.6559601294
 31
0.0
  0
LINE
  5
FE
330
1F
100
AcDbEntity
  8
0
  6
Continuous
 62
     7
370
    25
100
AcDbLine
 10
7290.4943917314
 20
4802.3973608948
 30
0.0
 11
7290.4943917314
 21
4792.6559601294
 31
0.0
  0
LINE
  5
FF
330
1F
100
AcDbEntity
  8
0
  6
Continuous
 62
     7
370
    25
100
AcDbLine
 10
6175.3943917314
 20
4791.4559601294
 30
0.0
 11
6175.3943917314
 21
4790.7063020766
 31
0.0
  0
LINE
  5
100
330
1F
100
AcDbEntity
  8
0
  6
Continuous
 62
     7
370
    25
100
AcDbLine
 10
6155.3943917314
 20
4791.4559601294
 30
0.0
 11
6155.3943917314
 21
4790.7063020766
 31
0.0
  0
LINE
  5
101
330
1F
100
AcDbEntity
  8
0
  6
Continuous
 62
     7
370
    25
100
AcDbLine
 10
7259.9943917314
 20
4791.4559601294
 30
0.0
 11
7259.9943917314
 21
4790.7063020766
 31
0.0
  0
LINE
  5
102
330
1F
100
AcDbEntity
  8
0
  6
Continuous
 62
     7
370
    25
100
AcDbLine
 10
7279.9943917314
 20
4791.4559601294
 30
0.0
 11
7279.9943917314
 21
4790.7063020766
 31
0.0
  0
LINE
  5
103
330
1F
100
AcDbEntity
  8
0
  6
Continuous
 62
     7
370
    25
100
AcDbLine
 10
7288.2943917314
 20
4822.6559601294
 30
0.0
 11
7308.2943917314
 21
4822.6559601294
 31
0.0
  0
ARC
  5
104
330
1F
100
AcDbEntity
  8
0
  6
Continuous
 62
     7
370
    25
100
AcDbCircle
 10
7308.2943917314
 20
4827.6559601294
 30
0.0
 40
5.0
100
AcDbArc
 50
270.0
 51
90.0
  0
LINE
  5
105
330
1F
100
AcDbEntity
  8
0
  6
Continuous
 62
     7
370
    25
100
AcDbLine
 10
7308.2943917314
 20
4832.6559601294
 30
0.0
 11
7288.2943917314
 21
4832.6559601294
 31
0.0
  0
ARC
  5
106
330
1F
100
AcDbEntity
  8
0
  6
Continuous
 62
     7
370
    25
100
AcDbCircle
 10
7288.2943917314
 20
4827.6559601294
 30
0.0
 40
5.0
100
AcDbArc
 50
90.0
 51
270.0
  0
LINE
  5
107
330
1F
100
AcDbEntity
  8
0
  6
Continuous
 62
     7
370
    25
100
AcDbLine
 10
7248.1943917314
 20
4822.6559601294
 30
0.0
 11
7268.1943917314
 21
4822.6559601294
 31
0.0
  0
ARC
  5
108
330
1F
100
AcDbEntity
  8
0
  6
Continuous
 62
     7
370
    25
100
AcDbCircle
 10
7268.1943917314
 20
4827.6559601294
 30
0.0
 40
5.0
100
AcDbArc
 50
270.0
 51
90.0
  0
LINE
  5
109
330
1F
100
AcDbEntity
  8
0
  6
Continuous
 62
     7
370
    25
100
AcDbLine
 10
7268.1943917314
 20
4832.6559601294
 30
0.0
 11
7248.1943917314
 21
4832.6559601294
 31
0.0
  0
ARC
  5
10A
330
1F
100
AcDbEntity
  8
0
  6
Continuous
 62
     7
370
    25
100
AcDbCircle
 10
7248.1943917314
 20
4827.6559601294
 30
0.0
 40
5.0
100
AcDbArc
 50
90.0
 51
270.0
  0
LINE
  5
10B
330
1F
100
AcDbEntity
  8
0
  6
Continuous
 62
     7
370
    25
100
AcDbLine
 10
7208.0943917314
 20
4822.6559601294
 30
0.0
 11
7228.0943917314
 21
4822.6559601294
 31
0.0
  0
ARC
  5
10C
330
1F
100
AcDbEntity
  8
0
  6
Continuous
 62
     7
370
    25
100
AcDbCircle
 10
7228.0943917314
 20
4827.6559601294
 30
0.0
 40
5.0
100
AcDbArc
 50
270.0
 51
90.0
  0
LINE
  5
10D
330
1F
100
AcDbEntity
  8
0
  6
Continuous
 62
     7
370
    25
100
AcDbLine
 10
7228.0943917314
 20
4832.6559601294
 30
0.0
 11
7208.0943917314
 21
4832.6559601294
 31
0.0
  0
ARC
  5
10E
330
1F
100
AcDbEntity
  8
0
  6
Continuous
 62
     7
370
    25
100
AcDbCircle
 10
7208.0943917314
 20
4827.6559601294
 30
0.0
 40
5.0
100
AcDbArc
 50
90.0
 51
270.0
  0
LINE
  5
10F
330
1F
100
AcDbEntity
  8
0
  6
Continuous
 62
     7
370
    25
100
AcDbLine
 10
7167.9943917314
 20
4822.6559601294
 30
0.0
 11
7187.9943917314
 21
4822.6559601294
 31
0.0
  0
ARC
  5
110
330
1F
100
AcDbEntity
  8
0
  6
Continuous
 62
     7
370
    25
100
AcDbCircle
 10
7187.9943917314
 20
4827.6559601294
 30
0.0
 40
5.0
100
AcDbArc
 50
270.0
 51
90.0
  0
LINE
  5
111
330
1F
100
AcDbEntity
  8
0
  6
Continuous
 62
     7
370
    25
100
AcDbLine
 10
7187.9943917314
 20
4832.6559601294
 30
0.0
 11
7167.9943917314
 21
4832.6559601294
 31
0.0
  0
ARC
  5
112
330
1F
100
AcDbEntity
  8
0
  6
Continuous
 62
     7
370
    25
100
AcDbCircle
 10
7167.9943917314
 20
4827.6559601294
 30
0.0
 40
5.0
100
AcDbArc
 50
90.0
 51
270.0
  0
LINE
  5
113
330
1F
100
AcDbEntity
  8
0
  6
Continuous
 62
     7
370
    25
100
AcDbLine
 10
7127.8943917314
 20
4822.6559601294
 30
0.0
 11
7147.8943917314
 21
4822.6559601294
 31
0.0
  0
ARC
  5
114
330
1F
100
AcDbEntity
  8
0
  6
Continuous
 62
     7
370
    25
100
AcDbCircle
 10
7147.8943917314
 20
4827.6559601294
 30
0.0
 40
5.0
100
AcDbArc
 50
270.0
 51
90.0
  0
LINE
  5
115
330
1F
100
AcDbEntity
  8
0
  6
Continuous
 62
     7
370
    25
100
AcDbLine
 10
7147.8943917314
 20
4832.6559601294
 30
0.0
 11
7127.8943917314
 21
4832.6559601294
 31
0.0
  0
ARC
  5
116
330
1F
100
AcDbEntity
  8
0
  6
Continuous
 62
     7
370
    25
100
AcDbCircle
 10
7127.8943917314
 20
4827.6559601294
 30
0.0
 40
5.0
100
AcDbArc
 50
90.0
 51
270.0
  0
LINE
  5
117
330
1F
100
AcDbEntity
  8
0
  6
Continuous
 62
     7
370
    25
100
AcDbLine
 10
7087.7943917314
 20
4822.6559601294
 30
0.0
 11
7107.7943917314
 21
4822.6559601294
 31
0.0
  0
ARC
  5
118
330
1F
100
AcDbEntity
  8
0
  6
Continuous
 62
     7
370
    25
100
AcDbCircle
 10
7107.7943917314
 20
4827.6559601294
 30
0.0
 40
5.0
100
AcDbArc
 50
270.0
 51
90.0
  0
LINE
  5
119
330
1F
100
AcDbEntity
  8
0
  6
Continuous
 62
     7
370
    25
100
AcDbLine
 10
7107.7943917314
 20
4832.6559601294
 30
0.0
 11
7087.7943917314
 21
4832.6559601294
 31
0.0
  0
ARC
  5
11A
330
1F
100
AcDbEntity
  8
0
  6
Continuous
 62
     7
370
    25
100
AcDbCircle
 10
7087.7943917314
 20
4827.6559601294
 30
0.0
 40
5.0
100
AcDbArc
 50
90.0
 51
270.0
  0
LINE
  5
11B
330
1F
100
AcDbEntity
  8
0
  6
Continuous
 62
     7
370
    25
100
AcDbLine
 10
7047.6943917314
 20
4822.6559601294
 30
0.0
 11
7067.6943917314
 21
4822.6559601294
 31
0.0
  0
ARC
  5
11C
330
1F
100
AcDbEntity
  8
0
  6
Continuous
 62
     7
370
    25
100
AcDbCircle
 10
7067.6943917314
 20
4827.6559601294
 30
0.0
 40
5.0
100
AcDbArc
 50
270.0
 51
90.0
  0
LINE
  5
11D
330
1F
100
AcDbEntity
  8
0
  6
Continuous
 62
     7
370
    25
100
AcDbLine
 10
7067.6943917314
 20
4832.6559601294
 30
0.0
 11
7047.6943917314
 21
4832.6559601294
 31
0.0
  0
ARC
  5
11E
330
1F
100
AcDbEntity
  8
0
  6
Continuous
 62
     7
370
    25
100
AcDbCircle
 10
7047.6943917314
 20
4827.6559601294
 30
0.0
 40
5.0
100
AcDbArc
 50
90.0
 51
270.0
  0
LINE
  5
11F
330
1F
100
AcDbEntity
  8
0
  6
Continuous
 62
     7
370
    25
100
AcDbLine
 10
7007.5943917314
 20
4822.6559601294
 30
0.0
 11
7027.5943917314
 21
4822.6559601294
 31
0.0
  0
ARC
  5
120
330
1F
100
AcDbEntity
  8
0
  6
Continuous
 62
     7
370
    25
100
AcDbCircle
 10
7027.5943917314
 20
4827.6559601294
 30
0.0
 40
5.0
100
AcDbArc
 50
270.0
 51
90.0
  0
LINE
  5
121
330
1F
100
AcDbEntity
  8
0
  6
Continuous
 62
     7
370
    25
100
AcDbLine
 10
7027.5943917314
 20
4832.6559601294
 30
0.0
 11
7007.5943917314
 21
4832.6559601294
 31
0.0
  0
ARC
  5
122
330
1F
100
AcDbEntity
  8
0
  6
Continuous
 62
     7
370
    25
100
AcDbCircle
 10
7007.5943917314
 20
4827.6559601294
 30
0.0
 40
5.0
100
AcDbArc
 50
90.0
 51
270.0
  0
LINE
  5
123
330
1F
100
AcDbEntity
  8
0
  6
Continuous
 62
     7
370
    25
100
AcDbLine
 10
6967.4943917314
 20
4822.6559601294
 30
0.0
 11
6987.4943917314
 21
4822.6559601294
 31
0.0
  0
ARC
  5
124
330
1F
100
AcDbEntity
  8
0
  6
Continuous
 62
     7
370
    25
100
AcDbCircle
 10
6987.4943917314
 20
4827.6559601294
 30
0.0
 40
5.0
100
AcDbArc
 50
270.0
 51
90.0
  0
LINE
  5
125
330
1F
100
AcDbEntity
  8
0
  6
Continuous
 62
     7
370
    25
100
AcDbLine
 10
6987.4943917314
 20
4832.6559601294
 30
0.0
 11
6967.4943917314
 21
4832.6559601294
 31
0.0
  0
ARC
  5
126
330
1F
100
AcDbEntity
  8
0
  6
Continuous
 62
     7
370
    25
100
AcDbCircle
 10
6967.4943917314
 20
4827.6559601294
 30
0.0
 40
5.0
100
AcDbArc
 50
90.0
 51
270.0
  0
LINE
  5
127
330
1F
100
AcDbEntity
  8
0
  6
Continuous
 62
     7
370
    25
100
AcDbLine
 10
6927.3943917314
 20
4822.6559601294
 30
0.0
 11
6947.3943917314
 21
4822.6559601294
 31
0.0
  0
ARC
  5
128
330
1F
100
AcDbEntity
  8
0
  6
Continuous
 62
     7
370
    25
100
AcDbCircle
 10
6947.3943917314
 20
4827.6559601294
 30
0.0
 40
5.0
100
AcDbArc
 50
270.0
 51
90.0
  0
LINE
  5
129
330
1F
100
AcDbEntity
  8
0
  6
Continuous
 62
     7
370
    25
100
AcDbLine
 10
6947.3943917314
 20
4832.6559601294
 30
0.0
 11
6927.3943917314
 21
4832.6559601294
 31
0.0
  0
ARC
  5
12A
330
1F
100
AcDbEntity
  8
0
  6
Continuous
 62
     7
370
    25
100
AcDbCircle
 10
6927.3943917314
 20
4827.6559601294
 30
0.0
 40
5.0
100
AcDbArc
 50
90.0
 51
270.0
  0
LINE
  5
12B
330
1F
100
AcDbEntity
  8
0
  6
Continuous
 62
     7
370
    25
100
AcDbLine
 10
6887.2943917314
 20
4822.6559601294
 30
0.0
 11
6907.2943917314
 21
4822.6559601294
 31
0.0
  0
ARC
  5
12C
330
1F
100
AcDbEntity
  8
0
  6
Continuous
 62
     7
370
    25
100
AcDbCircle
 10
6907.2943917314
 20
4827.6559601294
 30
0.0
 40
5.0
100
AcDbArc
 50
270.0
 51
90.0
  0
LINE
  5
12D
330
1F
100
AcDbEntity
  8
0
  6
Continuous
 62
     7
370
    25
100
AcDbLine
 10
6907.2943917314
 20
4832.6559601294
 30
0.0
 11
6887.2943917314
 21
4832.6559601294
 31
0.0
  0
ARC
  5
12E
330
1F
100
AcDbEntity
  8
0
  6
Continuous
 62
     7
370
    25
100
AcDbCircle
 10
6887.2943917314
 20
4827.6559601294
 30
0.0
 40
5.0
100
AcDbArc
 50
90.0
 51
270.0
  0
LINE
  5
12F
330
1F
100
AcDbEntity
  8
0
  6
Continuous
 62
     7
370
    25
100
AcDbLine
 10
6847.1943917314
 20
4822.6559601294
 30
0.0
 11
6867.1943917314
 21
4822.6559601294
 31
0.0
  0
ARC
  5
130
330
1F
100
AcDbEntity
  8
0
  6
Continuous
 62
     7
370
    25
100
AcDbCircle
 10
6867.1943917314
 20
4827.6559601294
 30
0.0
 40
5.0
100
AcDbArc
 50
270.0
 51
90.0
  0
LINE
  5
131
330
1F
100
AcDbEntity
  8
0
  6
Continuous
 62
     7
370
    25
100
AcDbLine
 10
6867.1943917314
 20
4832.6559601294
 30
0.0
 11
6847.1943917314
 21
4832.6559601294
 31
0.0
  0
ARC
  5
132
330
1F
100
AcDbEntity
  8
0
  6
Continuous
 62
     7
370
    25
100
AcDbCircle
 10
6847.1943917314
 20
4827.6559601294
 30
0.0
 40
5.0
100
AcDbArc
 50
90.0
 51
270.0
  0
LINE
  5
133
330
1F
100
AcDbEntity
  8
0
  6
Continuous
 62
     7
370
    25
100
AcDbLine
 10
6807.0943917314
 20
4822.6559601294
 30
0.0
 11
6827.0943917314
 21
4822.6559601294
 31
0.0
  0
ARC
  5
134
330
1F
100
AcDbEntity
  8
0
  6
Continuous
 62
     7
370
    25
100
AcDbCircle
 10
6827.0943917314
 20
4827.6559601294
 30
0.0
 40
5.0
100
AcDbArc
 50
270.0
 51
90.0
  0
LINE
  5
135
330
1F
100
AcDbEntity
  8
0
  6
Continuous
 62
     7
370
    25
100
AcDbLine
 10
6827.0943917314
 20
4832.6559601294
 30
0.0
 11
6807.0943917314
 21
4832.6559601294
 31
0.0
  0
ARC
  5
136
330
1F
100
AcDbEntity
  8
0
  6
Continuous
 62
     7
370
    25
100
AcDbCircle
 10
6807.0943917314
 20
4827.6559601294
 30
0.0
 40
5.0
100
AcDbArc
 50
90.0
 51
270.0
  0
LINE
  5
137
330
1F
100
AcDbEntity
  8
0
  6
Continuous
 62
     7
370
    25
100
AcDbLine
 10
6766.9943917314
 20
4822.6559601294
 30
0.0
 11
6786.9943917314
 21
4822.6559601294
 31
0.0
  0
ARC
  5
138
330
1F
100
AcDbEntity
  8
0
  6
Continuous
 62
     7
370
    25
100
AcDbCircle
 10
6786.9943917314
 20
4827.6559601294
 30
0.0
 40
5.000000000000909
100
AcDbArc
 50
270.0
 51
90.0
  0
LINE
  5
139
330
1F
100
AcDbEntity
  8
0
  6
Continuous
 62
     7
370
    25
100
AcDbLine
 10
6786.9943917314
 20
4832.6559601294
 30
0.0
 11
6766.9943917314
 21
4832.6559601294
 31
0.0
  0
ARC
  5
13A
330
1F
100
AcDbEntity
  8
0
  6
Continuous
 62
     7
370
    25
100
AcDbCircle
 10
6766.9943917314
 20
4827.6559601294
 30
0.0
 40
5.000000000000909
100
AcDbArc
 50
90.0
 51
270.0
  0
LINE
  5
13B
330
1F
100
AcDbEntity
  8
0
  6
Continuous
 62
     7
370
    25
100
AcDbLine
 10
6726.8943917314
 20
4822.6559601294
 30
0.0
 11
6746.8943917314
 21
4822.6559601294
 31
0.0
  0
ARC
  5
13C
330
1F
100
AcDbEntity
  8
0
  6
Continuous
 62
     7
370
    25
100
AcDbCircle
 10
6746.8943917314
 20
4827.6559601294
 30
0.0
 40
5.000000000000909
100
AcDbArc
 50
270.0
 51
90.0
  0
LINE
  5
13D
330
1F
100
AcDbEntity
  8
0
  6
Continuous
 62
     7
370
    25
100
AcDbLine
 10
6746.8943917314
 20
4832.6559601294
 30
0.0
 11
6726.8943917314
 21
4832.6559601294
 31
0.0
  0
ARC
  5
13E
330
1F
100
AcDbEntity
  8
0
  6
Continuous
 62
     7
370
    25
100
AcDbCircle
 10
6726.8943917314
 20
4827.6559601294
 30
0.0
 40
5.000000000000909
100
AcDbArc
 50
90.0
 51
270.0
  0
LINE
  5
13F
330
1F
100
AcDbEntity
  8
0
  6
Continuous
 62
     7
370
    25
100
AcDbLine
 10
6686.7943917314
 20
4822.6559601294
 30
0.0
 11
6706.7943917314
 21
4822.6559601294
 31
0.0
  0
ARC
  5
140
330
1F
100
AcDbEntity
  8
0
  6
Continuous
 62
     7
370
    25
100
AcDbCircle
 10
6706.7943917314
 20
4827.6559601294
 30
0.0
 40
5.000000000000909
100
AcDbArc
 50
270.0
 51
90.0
  0
LINE
  5
141
330
1F
100
AcDbEntity
  8
0
  6
Continuous
 62
     7
370
    25
100
AcDbLine
 10
6706.7943917314
 20
4832.6559601294
 30
0.0
 11
6686.7943917314
 21
4832.6559601294
 31
0.0
  0
ARC
  5
142
330
1F
100
AcDbEntity
  8
0
  6
Continuous
 62
     7
370
    25
100
AcDbCircle
 10
6686.7943917314
 20
4827.6559601294
 30
0.0
 40
5.000000000000909
100
AcDbArc
 50
90.0
 51
270.0
  0
LINE
  5
143
330
1F
100
AcDbEntity
  8
0
  6
Continuous
 62
     7
370
    25
100
AcDbLine
 10
6646.6943917314
 20
4822.6559601294
 30
0.0
 11
6666.6943917314
 21
4822.6559601294
 31
0.0
  0
ARC
  5
144
330
1F
100
AcDbEntity
  8
0
  6
Continuous
 62
     7
370
    25
100
AcDbCircle
 10
6666.6943917314
 20
4827.6559601294
 30
0.0
 40
5.000000000000909
100
AcDbArc
 50
270.0
 51
90.0
  0
LINE
  5
145
330
1F
100
AcDbEntity
  8
0
  6
Continuous
 62
     7
370
    25
100
AcDbLine
 10
6666.6943917314
 20
4832.6559601294
 30
0.0
 11
6646.6943917314
 21
4832.6559601294
 31
0.0
  0
ARC
  5
146
330
1F
100
AcDbEntity
  8
0
  6
Continuous
 62
     7
370
    25
100
AcDbCircle
 10
6646.6943917314
 20
4827.6559601294
 30
0.0
 40
5.000000000000909
100
AcDbArc
 50
90.0
 51
270.0
  0
LINE
  5
147
330
1F
100
AcDbEntity
  8
0
  6
Continuous
 62
     7
370
    25
100
AcDbLine
 10
6606.5943917314
 20
4822.6559601294
 30
0.0
 11
6626.5943917314
 21
4822.6559601294
 31
0.0
  0
ARC
  5
148
330
1F
100
AcDbEntity
  8
0
  6
Continuous
 62
     7
370
    25
100
AcDbCircle
 10
6626.5943917314
 20
4827.6559601294
 30
0.0
 40
5.000000000000909
100
AcDbArc
 50
270.0
 51
90.0
  0
LINE
  5
149
330
1F
100
AcDbEntity
  8
0
  6
Continuous
 62
     7
370
    25
100
AcDbLine
 10
6626.5943917314
 20
4832.6559601294
 30
0.0
 11
6606.5943917314
 21
4832.6559601294
 31
0.0
  0
ARC
  5
14A
330
1F
100
AcDbEntity
  8
0
  6
Continuous
 62
     7
370
    25
100
AcDbCircle
 10
6606.5943917314
 20
4827.6559601294
 30
0.0
 40
5.000000000000909
100
AcDbArc
 50
90.0
 51
270.0
  0
LINE
  5
14B
330
1F
100
AcDbEntity
  8
0
  6
Continuous
 62
     7
370
    25
100
AcDbLine
 10
6566.4943917314
 20
4822.6559601294
 30
0.0
 11
6586.4943917314
 21
4822.6559601294
 31
0.0
  0
ARC
  5
14C
330
1F
100
AcDbEntity
  8
0
  6
Continuous
 62
     7
370
    25
100
AcDbCircle
 10
6586.4943917314
 20
4827.6559601294
 30
0.0
 40
5.000000000000909
100
AcDbArc
 50
270.0
 51
90.0
  0
LINE
  5
14D
330
1F
100
AcDbEntity
  8
0
  6
Continuous
 62
     7
370
    25
100
AcDbLine
 10
6586.4943917314
 20
4832.6559601294
 30
0.0
 11
6566.4943917314
 21
4832.6559601294
 31
0.0
  0
ARC
  5
14E
330
1F
100
AcDbEntity
  8
0
  6
Continuous
 62
     7
370
    25
100
AcDbCircle
 10
6566.4943917314
 20
4827.6559601294
 30
0.0
 40
5.000000000000909
100
AcDbArc
 50
90.0
 51
270.0
  0
LINE
  5
14F
330
1F
100
AcDbEntity
  8
0
  6
Continuous
 62
     7
370
    25
100
AcDbLine
 10
6526.3943917314
 20
4822.6559601294
 30
0.0
 11
6546.3943917314
 21
4822.6559601294
 31
0.0
  0
ARC
  5
150
330
1F
100
AcDbEntity
  8
0
  6
Continuous
 62
     7
370
    25
100
AcDbCircle
 10
6546.3943917314
 20
4827.6559601294
 30
0.0
 40
5.000000000000909
100
AcDbArc
 50
270.0
 51
90.0
  0
LINE
  5
151
330
1F
100
AcDbEntity
  8
0
  6
Continuous
 62
     7
370
    25
100
AcDbLine
 10
6546.3943917314
 20
4832.6559601294
 30
0.0
 11
6526.3943917314
 21
4832.6559601294
 31
0.0
  0
ARC
  5
152
330
1F
100
AcDbEntity
  8
0
  6
Continuous
 62
     7
370
    25
100
AcDbCircle
 10
6526.3943917314
 20
4827.6559601294
 30
0.0
 40
5.000000000000909
100
AcDbArc
 50
90.0
 51
270.0
  0
LINE
  5
153
330
1F
100
AcDbEntity
  8
0
  6
Continuous
 62
     7
370
    25
100
AcDbLine
 10
6486.2943917314
 20
4822.6559601294
 30
0.0
 11
6506.2943917314
 21
4822.6559601294
 31
0.0
  0
ARC
  5
154
330
1F
100
AcDbEntity
  8
0
  6
Continuous
 62
     7
370
    25
100
AcDbCircle
 10
6506.2943917314
 20
4827.6559601294
 30
0.0
 40
5.000000000000909
100
AcDbArc
 50
270.0
 51
90.0
  0
LINE
  5
155
330
1F
100
AcDbEntity
  8
0
  6
Continuous
 62
     7
370
    25
100
AcDbLine
 10
6506.2943917314
 20
4832.6559601294
 30
0.0
 11
6486.2943917314
 21
4832.6559601294
 31
0.0
  0
ARC
  5
156
330
1F
100
AcDbEntity
  8
0
  6
Continuous
 62
     7
370
    25
100
AcDbCircle
 10
6486.2943917314
 20
4827.6559601294
 30
0.0
 40
5.000000000000909
100
AcDbArc
 50
90.0
 51
270.0
  0
LINE
  5
157
330
1F
100
AcDbEntity
  8
0
  6
Continuous
 62
     7
370
    25
100
AcDbLine
 10
6446.1943917314
 20
4822.6559601294
 30
0.0
 11
6466.1943917314
 21
4822.6559601294
 31
0.0
  0
ARC
  5
158
330
1F
100
AcDbEntity
  8
0
  6
Continuous
 62
     7
370
    25
100
AcDbCircle
 10
6466.1943917314
 20
4827.6559601294
 30
0.0
 40
5.000000000000909
100
AcDbArc
 50
270.0
 51
90.0
  0
LINE
  5
159
330
1F
100
AcDbEntity
  8
0
  6
Continuous
 62
     7
370
    25
100
AcDbLine
 10
6466.1943917314
 20
4832.6559601294
 30
0.0
 11
6446.1943917314
 21
4832.6559601294
 31
0.0
  0
ARC
  5
15A
330
1F
100
AcDbEntity
  8
0
  6
Continuous
 62
     7
370
    25
100
AcDbCircle
 10
6446.1943917314
 20
4827.6559601294
 30
0.0
 40
5.000000000000909
100
AcDbArc
 50
90.0
 51
270.0
  0
LINE
  5
15B
330
1F
100
AcDbEntity
  8
0
  6
Continuous
 62
     7
370
    25
100
AcDbLine
 10
6406.0943917314
 20
4822.6559601294
 30
0.0
 11
6426.0943917314
 21
4822.6559601294
 31
0.0
  0
ARC
  5
15C
330
1F
100
AcDbEntity
  8
0
  6
Continuous
 62
     7
370
    25
100
AcDbCircle
 10
6426.0943917314
 20
4827.6559601294
 30
0.0
 40
5.000000000000909
100
AcDbArc
 50
270.0
 51
90.0
  0
LINE
  5
15D
330
1F
100
AcDbEntity
  8
0
  6
Continuous
 62
     7
370
    25
100
AcDbLine
 10
6426.0943917314
 20
4832.6559601294
 30
0.0
 11
6406.0943917314
 21
4832.6559601294
 31
0.0
  0
ARC
  5
15E
330
1F
100
AcDbEntity
  8
0
  6
Continuous
 62
     7
370
    25
100
AcDbCircle
 10
6406.0943917314
 20
4827.6559601294
 30
0.0
 40
5.000000000000909
100
AcDbArc
 50
90.0
 51
270.0
  0
LINE
  5
15F
330
1F
100
AcDbEntity
  8
0
  6
Continuous
 62
     7
370
    25
100
AcDbLine
 10
6365.9943917314
 20
4822.6559601294
 30
0.0
 11
6385.9943917314
 21
4822.6559601294
 31
0.0
  0
ARC
  5
160
330
1F
100
AcDbEntity
  8
0
  6
Continuous
 62
     7
370
    25
100
AcDbCircle
 10
6385.9943917314
 20
4827.6559601294
 30
0.0
 40
5.000000000000909
100
AcDbArc
 50
270.0
 51
90.0
  0
LINE
  5
161
330
1F
100
AcDbEntity
  8
0
  6
Continuous
 62
     7
370
    25
100
AcDbLine
 10
6385.9943917314
 20
4832.6559601294
 30
0.0
 11
6365.9943917314
 21
4832.6559601294
 31
0.0
  0
ARC
  5
162
330
1F
100
AcDbEntity
  8
0
  6
Continuous
 62
     7
370
    25
100
AcDbCircle
 10
6365.9943917314
 20
4827.6559601294
 30
0.0
 40
5.000000000000909
100
AcDbArc
 50
90.0
 51
270.0
  0
LINE
  5
163
330
1F
100
AcDbEntity
  8
0
  6
Continuous
 62
     7
370
    25
100
AcDbLine
 10
6325.8943917314
 20
4822.6559601294
 30
0.0
 11
6345.8943917314
 21
4822.6559601294
 31
0.0
  0
ARC
  5
164
330
1F
100
AcDbEntity
  8
0
  6
Continuous
 62
     7
370
    25
100
AcDbCircle
 10
6345.8943917314
 20
4827.6559601294
 30
0.0
 40
5.000000000000909
100
AcDbArc
 50
270.0
 51
90.0
  0
LINE
  5
165
330
1F
100
AcDbEntity
  8
0
  6
Continuous
 62
     7
370
    25
100
AcDbLine
 10
6345.8943917314
 20
4832.6559601294
 30
0.0
 11
6325.8943917314
 21
4832.6559601294
 31
0.0
  0
ARC
  5
166
330
1F
100
AcDbEntity
  8
0
  6
Continuous
 62
     7
370
    25
100
AcDbCircle
 10
6325.8943917314
 20
4827.6559601294
 30
0.0
 40
5.000000000000909
100
AcDbArc
 50
90.0
 51
270.0
  0
LINE
  5
167
330
1F
100
AcDbEntity
  8
0
  6
Continuous
 62
     7
370
    25
100
AcDbLine
 10
6285.7943917314
 20
4822.6559601294
 30
0.0
 11
6305.7943917314
 21
4822.6559601294
 31
0.0
  0
ARC
  5
168
330
1F
100
AcDbEntity
  8
0
  6
Continuous
 62
     7
370
    25
100
AcDbCircle
 10
6305.7943917314
 20
4827.6559601294
 30
0.0
 40
5.000000000000909
100
AcDbArc
 50
270.0
 51
90.0
  0
LINE
  5
169
330
1F
100
AcDbEntity
  8
0
  6
Continuous
 62
     7
370
    25
100
AcDbLine
 10
6305.7943917314
 20
4832.6559601294
 30
0.0
 11
6285.7943917314
 21
4832.6559601294
 31
0.0
  0
ARC
  5
16A
330
1F
100
AcDbEntity
  8
0
  6
Continuous
 62
     7
370
    25
100
AcDbCircle
 10
6285.7943917314
 20
4827.6559601294
 30
0.0
 40
5.000000000000909
100
AcDbArc
 50
90.0
 51
270.0
  0
LINE
  5
16B
330
1F
100
AcDbEntity
  8
0
  6
Continuous
 62
     7
370
    25
100
AcDbLine
 10
6245.6943917314
 20
4822.6559601294
 30
0.0
 11
6265.6943917314
 21
4822.6559601294
 31
0.0
  0
ARC
  5
16C
330
1F
100
AcDbEntity
  8
0
  6
Continuous
 62
     7
370
    25
100
AcDbCircle
 10
6265.6943917314
 20
4827.6559601294
 30
0.0
 40
5.000000000000909
100
AcDbArc
 50
270.0
 51
90.0
  0
LINE
  5
16D
330
1F
100
AcDbEntity
  8
0
  6
Continuous
 62
     7
370
    25
100
AcDbLine
 10
6265.6943917314
 20
4832.6559601294
 30
0.0
 11
6245.6943917314
 21
4832.6559601294
 31
0.0
  0
ARC
  5
16E
330
1F
100
AcDbEntity
  8
0
  6
Continuous
 62
     7
370
    25
100
AcDbCircle
 10
6245.6943917314
 20
4827.6559601294
 30
0.0
 40
5.000000000000909
100
AcDbArc
 50
90.0
 51
270.0
  0
LINE
  5
16F
330
1F
100
AcDbEntity
  8
0
  6
Continuous
 62
     7
370
    25
100
AcDbLine
 10
6205.5943917314
 20
4822.6559601294
 30
0.0
 11
6225.5943917314
 21
4822.6559601294
 31
0.0
  0
ARC
  5
170
330
1F
100
AcDbEntity
  8
0
  6
Continuous
 62
     7
370
    25
100
AcDbCircle
 10
6225.5943917314
 20
4827.6559601294
 30
0.0
 40
5.000000000000909
100
AcDbArc
 50
270.0
 51
90.0
  0
LINE
  5
171
330
1F
100
AcDbEntity
  8
0
  6
Continuous
 62
     7
370
    25
100
AcDbLine
 10
6225.5943917314
 20
4832.6559601294
 30
0.0
 11
6205.5943917314
 21
4832.6559601294
 31
0.0
  0
ARC
  5
172
330
1F
100
AcDbEntity
  8
0
  6
Continuous
 62
     7
370
    25
100
AcDbCircle
 10
6205.5943917314
 20
4827.6559601294
 30
0.0
 40
5.000000000000909
100
AcDbArc
 50
90.0
 51
270.0
  0
LINE
  5
173
330
1F
100
AcDbEntity
  8
0
  6
Continuous
 62
     7
370
    25
100
AcDbLine
 10
7288.2943917314
 20
4842.6559601294
 30
0.0
 11
7308.2943917314
 21
4842.6559601294
 31
0.0
  0
ARC
  5
174
330
1F
100
AcDbEntity
  8
0
  6
Continuous
 62
     7
370
    25
100
AcDbCircle
 10
7308.2943917314
 20
4847.6559601294
 30
0.0
 40
5.0
100
AcDbArc
 50
270.0
 51
90.0
  0
LINE
  5
175
330
1F
100
AcDbEntity
  8
0
  6
Continuous
 62
     7
370
    25
100
AcDbLine
 10
7308.2943917314
 20
4852.6559601294
 30
0.0
 11
7288.2943917314
 21
4852.6559601294
 31
0.0
  0
ARC
  5
176
330
1F
100
AcDbEntity
  8
0
  6
Continuous
 62
     7
370
    25
100
AcDbCircle
 10
7288.2943917314
 20
4847.6559601294
 30
0.0
 40
5.0
100
AcDbArc
 50
90.0
 51
270.0
  0
LINE
  5
177
330
1F
100
AcDbEntity
  8
0
  6
Continuous
 62
     7
370
    25
100
AcDbLine
 10
7248.1943917314
 20
4842.6559601294
 30
0.0
 11
7268.1943917314
 21
4842.6559601294
 31
0.0
  0
ARC
  5
178
330
1F
100
AcDbEntity
  8
0
  6
Continuous
 62
     7
370
    25
100
AcDbCircle
 10
7268.1943917314
 20
4847.6559601294
 30
0.0
 40
5.0
100
AcDbArc
 50
270.0
 51
90.0
  0
LINE
  5
179
330
1F
100
AcDbEntity
  8
0
  6
Continuous
 62
     7
370
    25
100
AcDbLine
 10
7268.1943917314
 20
4852.6559601294
 30
0.0
 11
7248.1943917314
 21
4852.6559601294
 31
0.0
  0
ARC
  5
17A
330
1F
100
AcDbEntity
  8
0
  6
Continuous
 62
     7
370
    25
100
AcDbCircle
 10
7248.1943917314
 20
4847.6559601294
 30
0.0
 40
5.0
100
AcDbArc
 50
90.0
 51
270.0
  0
LINE
  5
17B
330
1F
100
AcDbEntity
  8
0
  6
Continuous
 62
     7
370
    25
100
AcDbLine
 10
7208.0943917314
 20
4842.6559601294
 30
0.0
 11
7228.0943917314
 21
4842.6559601294
 31
0.0
  0
ARC
  5
17C
330
1F
100
AcDbEntity
  8
0
  6
Continuous
 62
     7
370
    25
100
AcDbCircle
 10
7228.0943917314
 20
4847.6559601294
 30
0.0
 40
5.0
100
AcDbArc
 50
270.0
 51
90.0
  0
LINE
  5
17D
330
1F
100
AcDbEntity
  8
0
  6
Continuous
 62
     7
370
    25
100
AcDbLine
 10
7228.0943917314
 20
4852.6559601294
 30
0.0
 11
7208.0943917314
 21
4852.6559601294
 31
0.0
  0
ARC
  5
17E
330
1F
100
AcDbEntity
  8
0
  6
Continuous
 62
     7
370
    25
100
AcDbCircle
 10
7208.0943917314
 20
4847.6559601294
 30
0.0
 40
5.0
100
AcDbArc
 50
90.0
 51
270.0
  0
LINE
  5
17F
330
1F
100
AcDbEntity
  8
0
  6
Continuous
 62
     7
370
    25
100
AcDbLine
 10
7167.9943917314
 20
4842.6559601294
 30
0.0
 11
7187.9943917314
 21
4842.6559601294
 31
0.0
  0
ARC
  5
180
330
1F
100
AcDbEntity
  8
0
  6
Continuous
 62
     7
370
    25
100
AcDbCircle
 10
7187.9943917314
 20
4847.6559601294
 30
0.0
 40
5.0
100
AcDbArc
 50
270.0
 51
90.0
  0
LINE
  5
181
330
1F
100
AcDbEntity
  8
0
  6
Continuous
 62
     7
370
    25
100
AcDbLine
 10
7187.9943917314
 20
4852.6559601294
 30
0.0
 11
7167.9943917314
 21
4852.6559601294
 31
0.0
  0
ARC
  5
182
330
1F
100
AcDbEntity
  8
0
  6
Continuous
 62
     7
370
    25
100
AcDbCircle
 10
7167.9943917314
 20
4847.6559601294
 30
0.0
 40
5.0
100
AcDbArc
 50
90.0
 51
270.0
  0
LINE
  5
183
330
1F
100
AcDbEntity
  8
0
  6
Continuous
 62
     7
370
    25
100
AcDbLine
 10
7127.8943917314
 20
4842.6559601294
 30
0.0
 11
7147.8943917314
 21
4842.6559601294
 31
0.0
  0
ARC
  5
184
330
1F
100
AcDbEntity
  8
0
  6
Continuous
 62
     7
370
    25
100
AcDbCircle
 10
7147.8943917314
 20
4847.6559601294
 30
0.0
 40
5.0
100
AcDbArc
 50
270.0
 51
90.0
  0
LINE
  5
185
330
1F
100
AcDbEntity
  8
0
  6
Continuous
 62
     7
370
    25
100
AcDbLine
 10
7147.8943917314
 20
4852.6559601294
 30
0.0
 11
7127.8943917314
 21
4852.6559601294
 31
0.0
  0
ARC
  5
186
330
1F
100
AcDbEntity
  8
0
  6
Continuous
 62
     7
370
    25
100
AcDbCircle
 10
7127.8943917314
 20
4847.6559601294
 30
0.0
 40
5.0
100
AcDbArc
 50
90.0
 51
270.0
  0
LINE
  5
187
330
1F
100
AcDbEntity
  8
0
  6
Continuous
 62
     7
370
    25
100
AcDbLine
 10
7087.7943917314
 20
4842.6559601294
 30
0.0
 11
7107.7943917314
 21
4842.6559601294
 31
0.0
  0
ARC
  5
188
330
1F
100
AcDbEntity
  8
0
  6
Continuous
 62
     7
370
    25
100
AcDbCircle
 10
7107.7943917314
 20
4847.6559601294
 30
0.0
 40
5.0
100
AcDbArc
 50
270.0
 51
90.0
  0
LINE
  5
189
330
1F
100
AcDbEntity
  8
0
  6
Continuous
 62
     7
370
    25
100
AcDbLine
 10
7107.7943917314
 20
4852.6559601294
 30
0.0
 11
7087.7943917314
 21
4852.6559601294
 31
0.0
  0
ARC
  5
18A
330
1F
100
AcDbEntity
  8
0
  6
Continuous
 62
     7
370
    25
100
AcDbCircle
 10
7087.7943917314
 20
4847.6559601294
 30
0.0
 40
5.0
100
AcDbArc
 50
90.0
 51
270.0
  0
LINE
  5
18B
330
1F
100
AcDbEntity
  8
0
  6
Continuous
 62
     7
370
    25
100
AcDbLine
 10
7047.6943917314
 20
4842.6559601294
 30
0.0
 11
7067.6943917314
 21
4842.6559601294
 31
0.0
  0
ARC
  5
18C
330
1F
100
AcDbEntity
  8
0
  6
Continuous
 62
     7
370
    25
100
AcDbCircle
 10
7067.6943917314
 20
4847.6559601294
 30
0.0
 40
5.0
100
AcDbArc
 50
270.0
 51
90.0
  0
LINE
  5
18D
330
1F
100
AcDbEntity
  8
0
  6
Continuous
 62
     7
370
    25
100
AcDbLine
 10
7067.6943917314
 20
4852.6559601294
 30
0.0
 11
7047.6943917314
 21
4852.6559601294
 31
0.0
  0
ARC
  5
18E
330
1F
100
AcDbEntity
  8
0
  6
Continuous
 62
     7
370
    25
100
AcDbCircle
 10
7047.6943917314
 20
4847.6559601294
 30
0.0
 40
5.0
100
AcDbArc
 50
90.0
 51
270.0
  0
LINE
  5
18F
330
1F
100
AcDbEntity
  8
0
  6
Continuous
 62
     7
370
    25
100
AcDbLine
 10
7007.5943917314
 20
4842.6559601294
 30
0.0
 11
7027.5943917314
 21
4842.6559601294
 31
0.0
  0
ARC
  5
190
330
1F
100
AcDbEntity
  8
0
  6
Continuous
 62
     7
370
    25
100
AcDbCircle
 10
7027.5943917314
 20
4847.6559601294
 30
0.0
 40
5.0
100
AcDbArc
 50
270.0
 51
90.0
  0
LINE
  5
191
330
1F
100
AcDbEntity
  8
0
  6
Continuous
 62
     7
370
    25
100
AcDbLine
 10
7027.5943917314
 20
4852.6559601294
 30
0.0
 11
7007.5943917314
 21
4852.6559601294
 31
0.0
  0
ARC
  5
192
330
1F
100
AcDbEntity
  8
0
  6
Continuous
 62
     7
370
    25
100
AcDbCircle
 10
7007.5943917314
 20
4847.6559601294
 30
0.0
 40
5.0
100
AcDbArc
 50
90.0
 51
270.0
  0
LINE
  5
193
330
1F
100
AcDbEntity
  8
0
  6
Continuous
 62
     7
370
    25
100
AcDbLine
 10
6967.4943917314
 20
4842.6559601294
 30
0.0
 11
6987.4943917314
 21
4842.6559601294
 31
0.0
  0
ARC
  5
194
330
1F
100
AcDbEntity
  8
0
  6
Continuous
 62
     7
370
    25
100
AcDbCircle
 10
6987.4943917314
 20
4847.6559601294
 30
0.0
 40
5.0
100
AcDbArc
 50
270.0
 51
90.0
  0
LINE
  5
195
330
1F
100
AcDbEntity
  8
0
  6
Continuous
 62
     7
370
    25
100
AcDbLine
 10
6987.4943917314
 20
4852.6559601294
 30
0.0
 11
6967.4943917314
 21
4852.6559601294
 31
0.0
  0
ARC
  5
196
330
1F
100
AcDbEntity
  8
0
  6
Continuous
 62
     7
370
    25
100
AcDbCircle
 10
6967.4943917314
 20
4847.6559601294
 30
0.0
 40
5.0
100
AcDbArc
 50
90.0
 51
270.0
  0
LINE
  5
197
330
1F
100
AcDbEntity
  8
0
  6
Continuous
 62
     7
370
    25
100
AcDbLine
 10
6927.3943917314
 20
4842.6559601294
 30
0.0
 11
6947.3943917314
 21
4842.6559601294
 31
0.0
  0
ARC
  5
198
330
1F
100
AcDbEntity
  8
0
  6
Continuous
 62
     7
370
    25
100
AcDbCircle
 10
6947.3943917314
 20
4847.6559601294
 30
0.0
 40
5.0
100
AcDbArc
 50
270.0
 51
90.0
  0
LINE
  5
199
330
1F
100
AcDbEntity
  8
0
  6
Continuous
 62
     7
370
    25
100
AcDbLine
 10
6947.3943917314
 20
4852.6559601294
 30
0.0
 11
6927.3943917314
 21
4852.6559601294
 31
0.0
  0
ARC
  5
19A
330
1F
100
AcDbEntity
  8
0
  6
Continuous
 62
     7
370
    25
100
AcDbCircle
 10
6927.3943917314
 20
4847.6559601294
 30
0.0
 40
5.0
100
AcDbArc
 50
90.0
 51
270.0
  0
LINE
  5
19B
330
1F
100
AcDbEntity
  8
0
  6
Continuous
 62
     7
370
    25
100
AcDbLine
 10
6887.2943917314
 20
4842.6559601294
 30
0.0
 11
6907.2943917314
 21
4842.6559601294
 31
0.0
  0
ARC
  5
19C
330
1F
100
AcDbEntity
  8
0
  6
Continuous
 62
     7
370
    25
100
AcDbCircle
 10
6907.2943917314
 20
4847.6559601294
 30
0.0
 40
5.0
100
AcDbArc
 50
270.0
 51
90.0
  0
LINE
  5
19D
330
1F
100
AcDbEntity
  8
0
  6
Continuous
 62
     7
370
    25
100
AcDbLine
 10
6907.2943917314
 20
4852.6559601294
 30
0.0
 11
6887.2943917314
 21
4852.6559601294
 31
0.0
  0
ARC
  5
19E
330
1F
100
AcDbEntity
  8
0
  6
Continuous
 62
     7
370
    25
100
AcDbCircle
 10
6887.2943917314
 20
4847.6559601294
 30
0.0
 40
5.0
100
AcDbArc
 50
90.0
 51
270.0
  0
LINE
  5
19F
330
1F
100
AcDbEntity
  8
0
  6
Continuous
 62
     7
370
    25
100
AcDbLine
 10
6847.1943917314
 20
4842.6559601294
 30
0.0
 11
6867.1943917314
 21
4842.6559601294
 31
0.0
  0
ARC
  5
1A0
330
1F
100
AcDbEntity
  8
0
  6
Continuous
 62
     7
370
    25
100
AcDbCircle
 10
6867.1943917314
 20
4847.6559601294
 30
0.0
 40
5.0
100
AcDbArc
 50
270.0
 51
90.0
  0
LINE
  5
1A1
330
1F
100
AcDbEntity
  8
0
  6
Continuous
 62
     7
370
    25
100
AcDbLine
 10
6867.1943917314
 20
4852.6559601294
 30
0.0
 11
6847.1943917314
 21
4852.6559601294
 31
0.0
  0
ARC
  5
1A2
330
1F
100
AcDbEntity
  8
0
  6
Continuous
 62
     7
370
    25
100
AcDbCircle
 10
6847.1943917314
 20
4847.6559601294
 30
0.0
 40
5.0
100
AcDbArc
 50
90.0
 51
270.0
  0
LINE
  5
1A3
330
1F
100
AcDbEntity
  8
0
  6
Continuous
 62
     7
370
    25
100
AcDbLine
 10
6807.0943917314
 20
4842.6559601294
 30
0.0
 11
6827.0943917314
 21
4842.6559601294
 31
0.0
  0
ARC
  5
1A4
330
1F
100
AcDbEntity
  8
0
  6
Continuous
 62
     7
370
    25
100
AcDbCircle
 10
6827.0943917314
 20
4847.6559601294
 30
0.0
 40
5.0
100
AcDbArc
 50
270.0
 51
90.0
  0
LINE
  5
1A5
330
1F
100
AcDbEntity
  8
0
  6
Continuous
 62
     7
370
    25
100
AcDbLine
 10
6827.0943917314
 20
4852.6559601294
 30
0.0
 11
6807.0943917314
 21
4852.6559601294
 31
0.0
  0
ARC
  5
1A6
330
1F
100
AcDbEntity
  8
0
  6
Continuous
 62
     7
370
    25
100
AcDbCircle
 10
6807.0943917314
 20
4847.6559601294
 30
0.0
 40
5.0
100
AcDbArc
 50
90.0
 51
270.0
  0
LINE
  5
1A7
330
1F
100
AcDbEntity
  8
0
  6
Continuous
 62
     7
370
    25
100
AcDbLine
 10
6766.9943917314
 20
4842.6559601294
 30
0.0
 11
6786.9943917314
 21
4842.6559601294
 31
0.0
  0
ARC
  5
1A8
330
1F
100
AcDbEntity
  8
0
  6
Continuous
 62
     7
370
    25
100
AcDbCircle
 10
6786.9943917314
 20
4847.6559601294
 30
0.0
 40
5.0
100
AcDbArc
 50
270.0
 51
90.0
  0
LINE
  5
1A9
330
1F
100
AcDbEntity
  8
0
  6
Continuous
 62
     7
370
    25
100
AcDbLine
 10
6786.9943917314
 20
4852.6559601294
 30
0.0
 11
6766.9943917314
 21
4852.6559601294
 31
0.0
  0
ARC
  5
1AA
330
1F
100
AcDbEntity
  8
0
  6
Continuous
 62
     7
370
    25
100
AcDbCircle
 10
6766.9943917314
 20
4847.6559601294
 30
0.0
 40
5.0
100
AcDbArc
 50
90.0
 51
270.0
  0
LINE
  5
1AB
330
1F
100
AcDbEntity
  8
0
  6
Continuous
 62
     7
370
    25
100
AcDbLine
 10
6726.8943917314
 20
4842.6559601294
 30
0.0
 11
6746.8943917314
 21
4842.6559601294
 31
0.0
  0
ARC
  5
1AC
330
1F
100
AcDbEntity
  8
0
  6
Continuous
 62
     7
370
    25
100
AcDbCircle
 10
6746.8943917314
 20
4847.6559601294
 30
0.0
 40
5.0
100
AcDbArc
 50
270.0
 51
90.0
  0
LINE
  5
1AD
330
1F
100
AcDbEntity
  8
0
  6
Continuous
 62
     7
370
    25
100
AcDbLine
 10
6746.8943917314
 20
4852.6559601294
 30
0.0
 11
6726.8943917314
 21
4852.6559601294
 31
0.0
  0
ARC
  5
1AE
330
1F
100
AcDbEntity
  8
0
  6
Continuous
 62
     7
370
    25
100
AcDbCircle
 10
6726.8943917314
 20
4847.6559601294
 30
0.0
 40
5.0
100
AcDbArc
 50
90.0
 51
270.0
  0
LINE
  5
1AF
330
1F
100
AcDbEntity
  8
0
  6
Continuous
 62
     7
370
    25
100
AcDbLine
 10
6686.7943917314
 20
4842.6559601294
 30
0.0
 11
6706.7943917314
 21
4842.6559601294
 31
0.0
  0
ARC
  5
1B0
330
1F
100
AcDbEntity
  8
0
  6
Continuous
 62
     7
370
    25
100
AcDbCircle
 10
6706.7943917314
 20
4847.6559601294
 30
0.0
 40
5.0
100
AcDbArc
 50
270.0
 51
90.0
  0
LINE
  5
1B1
330
1F
100
AcDbEntity
  8
0
  6
Continuous
 62
     7
370
    25
100
AcDbLine
 10
6706.7943917314
 20
4852.6559601294
 30
0.0
 11
6686.7943917314
 21
4852.6559601294
 31
0.0
  0
ARC
  5
1B2
330
1F
100
AcDbEntity
  8
0
  6
Continuous
 62
     7
370
    25
100
AcDbCircle
 10
6686.7943917314
 20
4847.6559601294
 30
0.0
 40
5.0
100
AcDbArc
 50
90.0
 51
270.0
  0
LINE
  5
1B3
330
1F
100
AcDbEntity
  8
0
  6
Continuous
 62
     7
370
    25
100
AcDbLine
 10
6646.6943917314
 20
4842.6559601294
 30
0.0
 11
6666.6943917314
 21
4842.6559601294
 31
0.0
  0
ARC
  5
1B4
330
1F
100
AcDbEntity
  8
0
  6
Continuous
 62
     7
370
    25
100
AcDbCircle
 10
6666.6943917314
 20
4847.6559601294
 30
0.0
 40
5.0
100
AcDbArc
 50
270.0
 51
90.0
  0
LINE
  5
1B5
330
1F
100
AcDbEntity
  8
0
  6
Continuous
 62
     7
370
    25
100
AcDbLine
 10
6666.6943917314
 20
4852.6559601294
 30
0.0
 11
6646.6943917314
 21
4852.6559601294
 31
0.0
  0
ARC
  5
1B6
330
1F
100
AcDbEntity
  8
0
  6
Continuous
 62
     7
370
    25
100
AcDbCircle
 10
6646.6943917314
 20
4847.6559601294
 30
0.0
 40
5.0
100
AcDbArc
 50
90.0
 51
270.0
  0
LINE
  5
1B7
330
1F
100
AcDbEntity
  8
0
  6
Continuous
 62
     7
370
    25
100
AcDbLine
 10
6606.5943917314
 20
4842.6559601294
 30
0.0
 11
6626.5943917314
 21
4842.6559601294
 31
0.0
  0
ARC
  5
1B8
330
1F
100
AcDbEntity
  8
0
  6
Continuous
 62
     7
370
    25
100
AcDbCircle
 10
6626.5943917314
 20
4847.6559601294
 30
0.0
 40
5.0
100
AcDbArc
 50
270.0
 51
90.0
  0
LINE
  5
1B9
330
1F
100
AcDbEntity
  8
0
  6
Continuous
 62
     7
370
    25
100
AcDbLine
 10
6626.5943917314
 20
4852.6559601294
 30
0.0
 11
6606.5943917314
 21
4852.6559601294
 31
0.0
  0
ARC
  5
1BA
330
1F
100
AcDbEntity
  8
0
  6
Continuous
 62
     7
370
    25
100
AcDbCircle
 10
6606.5943917314
 20
4847.6559601294
 30
0.0
 40
5.0
100
AcDbArc
 50
90.0
 51
270.0
  0
LINE
  5
1BB
330
1F
100
AcDbEntity
  8
0
  6
Continuous
 62
     7
370
    25
100
AcDbLine
 10
6566.4943917314
 20
4842.6559601294
 30
0.0
 11
6586.4943917314
 21
4842.6559601294
 31
0.0
  0
ARC
  5
1BC
330
1F
100
AcDbEntity
  8
0
  6
Continuous
 62
     7
370
    25
100
AcDbCircle
 10
6586.4943917314
 20
4847.6559601294
 30
0.0
 40
5.0
100
AcDbArc
 50
270.0
 51
90.0
  0
LINE
  5
1BD
330
1F
100
AcDbEntity
  8
0
  6
Continuous
 62
     7
370
    25
100
AcDbLine
 10
6586.4943917314
 20
4852.6559601294
 30
0.0
 11
6566.4943917314
 21
4852.6559601294
 31
0.0
  0
ARC
  5
1BE
330
1F
100
AcDbEntity
  8
0
  6
Continuous
 62
     7
370
    25
100
AcDbCircle
 10
6566.4943917314
 20
4847.6559601294
 30
0.0
 40
5.0
100
AcDbArc
 50
90.0
 51
270.0
  0
LINE
  5
1BF
330
1F
100
AcDbEntity
  8
0
  6
Continuous
 62
     7
370
    25
100
AcDbLine
 10
6526.3943917314
 20
4842.6559601294
 30
0.0
 11
6546.3943917314
 21
4842.6559601294
 31
0.0
  0
ARC
  5
1C0
330
1F
100
AcDbEntity
  8
0
  6
Continuous
 62
     7
370
    25
100
AcDbCircle
 10
6546.3943917314
 20
4847.6559601294
 30
0.0
 40
5.0
100
AcDbArc
 50
270.0
 51
90.0
  0
LINE
  5
1C1
330
1F
100
AcDbEntity
  8
0
  6
Continuous
 62
     7
370
    25
100
AcDbLine
 10
6546.3943917314
 20
4852.6559601294
 30
0.0
 11
6526.3943917314
 21
4852.6559601294
 31
0.0
  0
ARC
  5
1C2
330
1F
100
AcDbEntity
  8
0
  6
Continuous
 62
     7
370
    25
100
AcDbCircle
 10
6526.3943917314
 20
4847.6559601294
 30
0.0
 40
5.0
100
AcDbArc
 50
90.0
 51
270.0
  0
LINE
  5
1C3
330
1F
100
AcDbEntity
  8
0
  6
Continuous
 62
     7
370
    25
100
AcDbLine
 10
6486.2943917314
 20
4842.6559601294
 30
0.0
 11
6506.2943917314
 21
4842.6559601294
 31
0.0
  0
ARC
  5
1C4
330
1F
100
AcDbEntity
  8
0
  6
Continuous
 62
     7
370
    25
100
AcDbCircle
 10
6506.2943917314
 20
4847.6559601294
 30
0.0
 40
5.0
100
AcDbArc
 50
270.0
 51
90.0
  0
LINE
  5
1C5
330
1F
100
AcDbEntity
  8
0
  6
Continuous
 62
     7
370
    25
100
AcDbLine
 10
6506.2943917314
 20
4852.6559601294
 30
0.0
 11
6486.2943917314
 21
4852.6559601294
 31
0.0
  0
ARC
  5
1C6
330
1F
100
AcDbEntity
  8
0
  6
Continuous
 62
     7
370
    25
100
AcDbCircle
 10
6486.2943917314
 20
4847.6559601294
 30
0.0
 40
5.0
100
AcDbArc
 50
90.0
 51
270.0
  0
LINE
  5
1C7
330
1F
100
AcDbEntity
  8
0
  6
Continuous
 62
     7
370
    25
100
AcDbLine
 10
6446.1943917314
 20
4842.6559601294
 30
0.0
 11
6466.1943917314
 21
4842.6559601294
 31
0.0
  0
ARC
  5
1C8
330
1F
100
AcDbEntity
  8
0
  6
Continuous
 62
     7
370
    25
100
AcDbCircle
 10
6466.1943917314
 20
4847.6559601294
 30
0.0
 40
5.0
100
AcDbArc
 50
270.0
 51
90.0
  0
LINE
  5
1C9
330
1F
100
AcDbEntity
  8
0
  6
Continuous
 62
     7
370
    25
100
AcDbLine
 10
6466.1943917314
 20
4852.6559601294
 30
0.0
 11
6446.1943917314
 21
4852.6559601294
 31
0.0
  0
ARC
  5
1CA
330
1F
100
AcDbEntity
  8
0
  6
Continuous
 62
     7
370
    25
100
AcDbCircle
 10
6446.1943917314
 20
4847.6559601294
 30
0.0
 40
5.0
100
AcDbArc
 50
90.0
 51
270.0
  0
LINE
  5
1CB
330
1F
100
AcDbEntity
  8
0
  6
Continuous
 62
     7
370
    25
100
AcDbLine
 10
6406.0943917314
 20
4842.6559601294
 30
0.0
 11
6426.0943917314
 21
4842.6559601294
 31
0.0
  0
ARC
  5
1CC
330
1F
100
AcDbEntity
  8
0
  6
Continuous
 62
     7
370
    25
100
AcDbCircle
 10
6426.0943917314
 20
4847.6559601294
 30
0.0
 40
5.0
100
AcDbArc
 50
270.0
 51
90.0
  0
LINE
  5
1CD
330
1F
100
AcDbEntity
  8
0
  6
Continuous
 62
     7
370
    25
100
AcDbLine
 10
6426.0943917314
 20
4852.6559601294
 30
0.0
 11
6406.0943917314
 21
4852.6559601294
 31
0.0
  0
ARC
  5
1CE
330
1F
100
AcDbEntity
  8
0
  6
Continuous
 62
     7
370
    25
100
AcDbCircle
 10
6406.0943917314
 20
4847.6559601294
 30
0.0
 40
5.0
100
AcDbArc
 50
90.0
 51
270.0
  0
LINE
  5
1CF
330
1F
100
AcDbEntity
  8
0
  6
Continuous
 62
     7
370
    25
100
AcDbLine
 10
6365.9943917314
 20
4842.6559601294
 30
0.0
 11
6385.9943917314
 21
4842.6559601294
 31
0.0
  0
ARC
  5
1D0
330
1F
100
AcDbEntity
  8
0
  6
Continuous
 62
     7
370
    25
100
AcDbCircle
 10
6385.9943917314
 20
4847.6559601294
 30
0.0
 40
5.0
100
AcDbArc
 50
270.0
 51
90.0
  0
LINE
  5
1D1
330
1F
100
AcDbEntity
  8
0
  6
Continuous
 62
     7
370
    25
100
AcDbLine
 10
6385.9943917314
 20
4852.6559601294
 30
0.0
 11
6365.9943917314
 21
4852.6559601294
 31
0.0
  0
ARC
  5
1D2
330
1F
100
AcDbEntity
  8
0
  6
Continuous
 62
     7
370
    25
100
AcDbCircle
 10
6365.9943917314
 20
4847.6559601294
 30
0.0
 40
5.0
100
AcDbArc
 50
90.0
 51
270.0
  0
LINE
  5
1D3
330
1F
100
AcDbEntity
  8
0
  6
Continuous
 62
     7
370
    25
100
AcDbLine
 10
6325.8943917314
 20
4842.6559601294
 30
0.0
 11
6345.8943917314
 21
4842.6559601294
 31
0.0
  0
ARC
  5
1D4
330
1F
100
AcDbEntity
  8
0
  6
Continuous
 62
     7
370
    25
100
AcDbCircle
 10
6345.8943917314
 20
4847.6559601294
 30
0.0
 40
5.0
100
AcDbArc
 50
270.0
 51
90.0
  0
LINE
  5
1D5
330
1F
100
AcDbEntity
  8
0
  6
Continuous
 62
     7
370
    25
100
AcDbLine
 10
6345.8943917314
 20
4852.6559601294
 30
0.0
 11
6325.8943917314
 21
4852.6559601294
 31
0.0
  0
ARC
  5
1D6
330
1F
100
AcDbEntity
  8
0
  6
Continuous
 62
     7
370
    25
100
AcDbCircle
 10
6325.8943917314
 20
4847.6559601294
 30
0.0
 40
5.0
100
AcDbArc
 50
90.0
 51
270.0
  0
LINE
  5
1D7
330
1F
100
AcDbEntity
  8
0
  6
Continuous
 62
     7
370
    25
100
AcDbLine
 10
6285.7943917314
 20
4842.6559601294
 30
0.0
 11
6305.7943917314
 21
4842.6559601294
 31
0.0
  0
ARC
  5
1D8
330
1F
100
AcDbEntity
  8
0
  6
Continuous
 62
     7
370
    25
100
AcDbCircle
 10
6305.7943917314
 20
4847.6559601294
 30
0.0
 40
5.0
100
AcDbArc
 50
270.0
 51
90.0
  0
LINE
  5
1D9
330
1F
100
AcDbEntity
  8
0
  6
Continuous
 62
     7
370
    25
100
AcDbLine
 10
6305.7943917314
 20
4852.6559601294
 30
0.0
 11
6285.7943917314
 21
4852.6559601294
 31
0.0
  0
ARC
  5
1DA
330
1F
100
AcDbEntity
  8
0
  6
Continuous
 62
     7
370
    25
100
AcDbCircle
 10
6285.7943917314
 20
4847.6559601294
 30
0.0
 40
5.0
100
AcDbArc
 50
90.0
 51
270.0
  0
LINE
  5
1DB
330
1F
100
AcDbEntity
  8
0
  6
Continuous
 62
     7
370
    25
100
AcDbLine
 10
6245.6943917314
 20
4842.6559601294
 30
0.0
 11
6265.6943917314
 21
4842.6559601294
 31
0.0
  0
ARC
  5
1DC
330
1F
100
AcDbEntity
  8
0
  6
Continuous
 62
     7
370
    25
100
AcDbCircle
 10
6265.6943917314
 20
4847.6559601294
 30
0.0
 40
5.0
100
AcDbArc
 50
270.0
 51
90.0
  0
LINE
  5
1DD
330
1F
100
AcDbEntity
  8
0
  6
Continuous
 62
     7
370
    25
100
AcDbLine
 10
6265.6943917314
 20
4852.6559601294
 30
0.0
 11
6245.6943917314
 21
4852.6559601294
 31
0.0
  0
ARC
  5
1DE
330
1F
100
AcDbEntity
  8
0
  6
Continuous
 62
     7
370
    25
100
AcDbCircle
 10
6245.6943917314
 20
4847.6559601294
 30
0.0
 40
5.0
100
AcDbArc
 50
90.0
 51
270.0
  0
LINE
  5
1DF
330
1F
100
AcDbEntity
  8
0
  6
Continuous
 62
     7
370
    25
100
AcDbLine
 10
6205.5943917314
 20
4842.6559601294
 30
0.0
 11
6225.5943917314
 21
4842.6559601294
 31
0.0
  0
ARC
  5
1E0
330
1F
100
AcDbEntity
  8
0
  6
Continuous
 62
     7
370
    25
100
AcDbCircle
 10
6225.5943917314
 20
4847.6559601294
 30
0.0
 40
5.0
100
AcDbArc
 50
270.0
 51
90.0
  0
LINE
  5
1E1
330
1F
100
AcDbEntity
  8
0
  6
Continuous
 62
     7
370
    25
100
AcDbLine
 10
6225.5943917314
 20
4852.6559601294
 30
0.0
 11
6205.5943917314
 21
4852.6559601294
 31
0.0
  0
ARC
  5
1E2
330
1F
100
AcDbEntity
  8
0
  6
Continuous
 62
     7
370
    25
100
AcDbCircle
 10
6205.5943917314
 20
4847.6559601294
 30
0.0
 40
5.0
100
AcDbArc
 50
90.0
 51
270.0
  0
LINE
  5
1E3
330
1F
100
AcDbEntity
  8
0
  6
Continuous
 62
     7
370
    25
100
AcDbLine
 10
7291.8231112614
 20
4802.6559601294
 30
0.0
 11
7308.2943917314
 21
4802.6559601294
 31
0.0
  0
ARC
  5
1E4
330
1F
100
AcDbEntity
  8
0
  6
Continuous
 62
     7
370
    25
100
AcDbCircle
 10
7308.2943917314
 20
4807.6559601294
 30
0.0
 40
5.0
100
AcDbArc
 50
270.0
 51
90.0
  0
LINE
  5
1E5
330
1F
100
AcDbEntity
  8
0
  6
Continuous
 62
     7
370
    25
100
AcDbLine
 10
7308.2943917314
 20
4812.6559601294
 30
0.0
 11
7288.2943917314
 21
4812.6559601294
 31
0.0
  0
ARC
  5
1E6
330
1F
100
AcDbEntity
  8
0
  6
Continuous
 62
     7
370
    25
100
AcDbCircle
 10
7288.2943917314
 20
4807.6559601294
 30
0.0
 40
5.0
100
AcDbArc
 50
90.0
 51
168.4630409672
  0
ARC
  5
1E7
330
1F
100
AcDbEntity
  8
0
  6
Continuous
 62
     7
370
    25
100
AcDbCircle
 10
7268.1943917314
 20
4807.6559601294
 30
0.0
 40
5.0
100
AcDbArc
 50
11.5369590328
 51
90.0
  0
LINE
  5
1E8
330
1F
100
AcDbEntity
  8
0
  6
Continuous
 62
     7
370
    25
100
AcDbLine
 10
7268.1943917314
 20
4812.6559601294
 30
0.0
 11
7248.1943917314
 21
4812.6559601294
 31
0.0
  0
ARC
  5
1E9
330
1F
100
AcDbEntity
  8
0
  6
Continuous
 62
     7
370
    25
100
AcDbCircle
 10
7248.1943917314
 20
4807.6559601294
 30
0.0
 40
5.0
100
AcDbArc
 50
90.0
 51
168.4630409672
  0
ARC
  5
1EA
330
1F
100
AcDbEntity
  8
0
  6
Continuous
 62
     7
370
    25
100
AcDbCircle
 10
7228.0943917314
 20
4807.6559601294
 30
0.0
 40
5.0
100
AcDbArc
 50
11.5369590328
 51
90.0
  0
LINE
  5
1EB
330
1F
100
AcDbEntity
  8
0
  6
Continuous
 62
     7
370
    25
100
AcDbLine
 10
7228.0943917314
 20
4812.6559601294
 30
0.0
 11
7208.0943917314
 21
4812.6559601294
 31
0.0
  0
ARC
  5
1EC
330
1F
100
AcDbEntity
  8
0
  6
Continuous
 62
     7
370
    25
100
AcDbCircle
 10
7208.0943917314
 20
4807.6559601294
 30
0.0
 40
5.0
100
AcDbArc
 50
90.0
 51
168.4630409672
  0
ARC
  5
1ED
330
1F
100
AcDbEntity
  8
0
  6
Continuous
 62
     7
370
    25
100
AcDbCircle
 10
7187.9943917314
 20
4807.6559601294
 30
0.0
 40
5.0
100
AcDbArc
 50
11.5369590328
 51
90.0
  0
LINE
  5
1EE
330
1F
100
AcDbEntity
  8
0
  6
Continuous
 62
     7
370
    25
100
AcDbLine
 10
7187.9943917314
 20
4812.6559601294
 30
0.0
 11
7167.9943917314
 21
4812.6559601294
 31
0.0
  0
ARC
  5
1EF
330
1F
100
AcDbEntity
  8
0
  6
Continuous
 62
     7
370
    25
100
AcDbCircle
 10
7167.9943917314
 20
4807.6559601294
 30
0.0
 40
5.00000000000081
100
AcDbArc
 50
90.0
 51
168.4630409672
  0
ARC
  5
1F0
330
1F
100
AcDbEntity
  8
0
  6
Continuous
 62
     7
370
    25
100
AcDbCircle
 10
7147.8943917314
 20
4807.6559601294
 30
0.0
 40
5.0
100
AcDbArc
 50
11.5369590328
 51
90.0
  0
LINE
  5
1F1
330
1F
100
AcDbEntity
  8
0
  6
Continuous
 62
     7
370
    25
100
AcDbLine
 10
7147.8943917314
 20
4812.6559601294
 30
0.0
 11
7127.8943917314
 21
4812.6559601294
 31
0.0
  0
ARC
  5
1F2
330
1F
100
AcDbEntity
  8
0
  6
Continuous
 62
     7
370
    25
100
AcDbCircle
 10
7127.8943917314
 20
4807.6559601294
 30
0.0
 40
5.0
100
AcDbArc
 50
90.0
 51
168.4630409672
  0
ARC
  5
1F3
330
1F
100
AcDbEntity
  8
0
  6
Continuous
 62
     7
370
    25
100
AcDbCircle
 10
7107.7943917314
 20
4807.6559601294
 30
0.0
 40
5.00000000000081
100
AcDbArc
 50
11.5369590328
 51
90.0
  0
LINE
  5
1F4
330
1F
100
AcDbEntity
  8
0
  6
Continuous
 62
     7
370
    25
100
AcDbLine
 10
7107.7943917314
 20
4812.6559601294
 30
0.0
 11
7087.7943917314
 21
4812.6559601294
 31
0.0
  0
ARC
  5
1F5
330
1F
100
AcDbEntity
  8
0
  6
Continuous
 62
     7
370
    25
100
AcDbCircle
 10
7087.7943917314
 20
4807.6559601294
 30
0.0
 40
5.0
100
AcDbArc
 50
90.0
 51
168.4630409672
  0
ARC
  5
1F6
330
1F
100
AcDbEntity
  8
0
  6
Continuous
 62
     7
370
    25
100
AcDbCircle
 10
7067.6943917314
 20
4807.6559601294
 30
0.0
 40
5.0
100
AcDbArc
 50
11.5369590328
 51
90.0
  0
LINE
  5
1F7
330
1F
100
AcDbEntity
  8
0
  6
Continuous
 62
     7
370
    25
100
AcDbLine
 10
7067.6943917314
 20
4812.6559601294
 30
0.0
 11
7047.6943917314
 21
4812.6559601294
 31
0.0
  0
ARC
  5
1F8
330
1F
100
AcDbEntity
  8
0
  6
Continuous
 62
     7
370
    25
100
AcDbCircle
 10
7047.6943917314
 20
4807.6559601294
 30
0.0
 40
5.0
100
AcDbArc
 50
90.0
 51
168.4630409672
  0
ARC
  5
1F9
330
1F
100
AcDbEntity
  8
0
  6
Continuous
 62
     7
370
    25
100
AcDbCircle
 10
7027.5943917314
 20
4807.6559601294
 30
0.0
 40
5.0
100
AcDbArc
 50
11.5369590328
 51
90.0
  0
LINE
  5
1FA
330
1F
100
AcDbEntity
  8
0
  6
Continuous
 62
     7
370
    25
100
AcDbLine
 10
7027.5943917314
 20
4812.6559601294
 30
0.0
 11
7007.5943917314
 21
4812.6559601294
 31
0.0
  0
ARC
  5
1FB
330
1F
100
AcDbEntity
  8
0
  6
Continuous
 62
     7
370
    25
100
AcDbCircle
 10
7007.5943917314
 20
4807.6559601294
 30
0.0
 40
5.0
100
AcDbArc
 50
90.0
 51
168.4630409672
  0
ARC
  5
1FC
330
1F
100
AcDbEntity
  8
0
  6
Continuous
 62
     7
370
    25
100
AcDbCircle
 10
6987.4943917314
 20
4807.6559601294
 30
0.0
 40
5.0
100
AcDbArc
 50
11.5369590328
 51
90.0
  0
LINE
  5
1FD
330
1F
100
AcDbEntity
  8
0
  6
Continuous
 62
     7
370
    25
100
AcDbLine
 10
6987.4943917314
 20
4812.6559601294
 30
0.0
 11
6967.4943917314
 21
4812.6559601294
 31
0.0
  0
ARC
  5
1FE
330
1F
100
AcDbEntity
  8
0
  6
Continuous
 62
     7
370
    25
100
AcDbCircle
 10
6967.4943917314
 20
4807.6559601294
 30
0.0
 40
5.00000000000081
100
AcDbArc
 50
90.0
 51
168.4630409672
  0
ARC
  5
1FF
330
1F
100
AcDbEntity
  8
0
  6
Continuous
 62
     7
370
    25
100
AcDbCircle
 10
6947.3943917314
 20
4807.6559601294
 30
0.0
 40
5.0
100
AcDbArc
 50
11.5369590328
 51
90.0
  0
LINE
  5
200
330
1F
100
AcDbEntity
  8
0
  6
Continuous
 62
     7
370
    25
100
AcDbLine
 10
6947.3943917314
 20
4812.6559601294
 30
0.0
 11
6927.3943917314
 21
4812.6559601294
 31
0.0
  0
ARC
  5
201
330
1F
100
AcDbEntity
  8
0
  6
Continuous
 62
     7
370
    25
100
AcDbCircle
 10
6927.3943917314
 20
4807.6559601294
 30
0.0
 40
5.0
100
AcDbArc
 50
90.0
 51
168.4630409672
  0
ARC
  5
202
330
1F
100
AcDbEntity
  8
0
  6
Continuous
 62
     7
370
    25
100
AcDbCircle
 10
6907.2943917314
 20
4807.6559601294
 30
0.0
 40
5.00000000000081
100
AcDbArc
 50
11.5369590328
 51
90.0
  0
LINE
  5
203
330
1F
100
AcDbEntity
  8
0
  6
Continuous
 62
     7
370
    25
100
AcDbLine
 10
6907.2943917314
 20
4812.6559601294
 30
0.0
 11
6887.2943917314
 21
4812.6559601294
 31
0.0
  0
ARC
  5
204
330
1F
100
AcDbEntity
  8
0
  6
Continuous
 62
     7
370
    25
100
AcDbCircle
 10
6887.2943917314
 20
4807.6559601294
 30
0.0
 40
5.0
100
AcDbArc
 50
90.0
 51
168.4630409672
  0
ARC
  5
205
330
1F
100
AcDbEntity
  8
0
  6
Continuous
 62
     7
370
    25
100
AcDbCircle
 10
6867.1943917314
 20
4807.6559601294
 30
0.0
 40
5.00000000000081
100
AcDbArc
 50
11.5369590328
 51
90.0
  0
LINE
  5
206
330
1F
100
AcDbEntity
  8
0
  6
Continuous
 62
     7
370
    25
100
AcDbLine
 10
6867.1943917314
 20
4812.6559601294
 30
0.0
 11
6847.1943917314
 21
4812.6559601294
 31
0.0
  0
ARC
  5
207
330
1F
100
AcDbEntity
  8
0
  6
Continuous
 62
     7
370
    25
100
AcDbCircle
 10
6847.1943917314
 20
4807.6559601294
 30
0.0
 40
5.00000000000081
100
AcDbArc
 50
90.0
 51
168.4630409672
  0
ARC
  5
208
330
1F
100
AcDbEntity
  8
0
  6
Continuous
 62
     7
370
    25
100
AcDbCircle
 10
6827.0943917314
 20
4807.6559601294
 30
0.0
 40
5.0
100
AcDbArc
 50
11.5369590328
 51
90.0
  0
LINE
  5
209
330
1F
100
AcDbEntity
  8
0
  6
Continuous
 62
     7
370
    25
100
AcDbLine
 10
6827.0943917314
 20
4812.6559601294
 30
0.0
 11
6807.0943917314
 21
4812.6559601294
 31
0.0
  0
ARC
  5
20A
330
1F
100
AcDbEntity
  8
0
  6
Continuous
 62
     7
370
    25
100
AcDbCircle
 10
6807.0943917314
 20
4807.6559601294
 30
0.0
 40
5.0
100
AcDbArc
 50
90.0
 51
168.4630409672
  0
ARC
  5
20B
330
1F
100
AcDbEntity
  8
0
  6
Continuous
 62
     7
370
    25
100
AcDbCircle
 10
6786.9943917314
 20
4807.6559601294
 30
0.0
 40
5.00000000000081
100
AcDbArc
 50
11.5369590328
 51
90.0
  0
LINE
  5
20C
330
1F
100
AcDbEntity
  8
0
  6
Continuous
 62
     7
370
    25
100
AcDbLine
 10
6786.9943917314
 20
4812.6559601294
 30
0.0
 11
6766.9943917314
 21
4812.6559601294
 31
0.0
  0
ARC
  5
20D
330
1F
100
AcDbEntity
  8
0
  6
Continuous
 62
     7
370
    25
100
AcDbCircle
 10
6766.9943917314
 20
4807.6559601294
 30
0.0
 40
5.00000000000081
100
AcDbArc
 50
90.0
 51
168.4630409672
  0
ARC
  5
20E
330
1F
100
AcDbEntity
  8
0
  6
Continuous
 62
     7
370
    25
100
AcDbCircle
 10
6746.8943917314
 20
4807.6559601294
 30
0.0
 40
5.0
100
AcDbArc
 50
11.5369590328
 51
90.0
  0
LINE
  5
20F
330
1F
100
AcDbEntity
  8
0
  6
Continuous
 62
     7
370
    25
100
AcDbLine
 10
6746.8943917314
 20
4812.6559601294
 30
0.0
 11
6726.8943917314
 21
4812.6559601294
 31
0.0
  0
ARC
  5
210
330
1F
100
AcDbEntity
  8
0
  6
Continuous
 62
     7
370
    25
100
AcDbCircle
 10
6726.8943917314
 20
4807.6559601294
 30
0.0
 40
5.0
100
AcDbArc
 50
90.0
 51
168.4630409672
  0
ARC
  5
211
330
1F
100
AcDbEntity
  8
0
  6
Continuous
 62
     7
370
    25
100
AcDbCircle
 10
6706.7943917314
 20
4807.6559601294
 30
0.0
 40
5.0
100
AcDbArc
 50
11.5369590328
 51
90.0
  0
LINE
  5
212
330
1F
100
AcDbEntity
  8
0
  6
Continuous
 62
     7
370
    25
100
AcDbLine
 10
6706.7943917314
 20
4812.6559601294
 30
0.0
 11
6686.7943917314
 21
4812.6559601294
 31
0.0
  0
ARC
  5
213
330
1F
100
AcDbEntity
  8
0
  6
Continuous
 62
     7
370
    25
100
AcDbCircle
 10
6686.7943917314
 20
4807.6559601294
 30
0.0
 40
5.0
100
AcDbArc
 50
90.0
 51
168.4630409672
  0
ARC
  5
214
330
1F
100
AcDbEntity
  8
0
  6
Continuous
 62
     7
370
    25
100
AcDbCircle
 10
6666.6943917314
 20
4807.6559601294
 30
0.0
 40
5.0
100
AcDbArc
 50
11.5369590328
 51
90.0
  0
LINE
  5
215
330
1F
100
AcDbEntity
  8
0
  6
Continuous
 62
     7
370
    25
100
AcDbLine
 10
6666.6943917314
 20
4812.6559601294
 30
0.0
 11
6646.6943917314
 21
4812.6559601294
 31
0.0
  0
ARC
  5
216
330
1F
100
AcDbEntity
  8
0
  6
Continuous
 62
     7
370
    25
100
AcDbCircle
 10
6646.6943917314
 20
4807.6559601294
 30
0.0
 40
5.00000000000081
100
AcDbArc
 50
90.0
 51
168.4630409672
  0
ARC
  5
217
330
1F
100
AcDbEntity
  8
0
  6
Continuous
 62
     7
370
    25
100
AcDbCircle
 10
6626.5943917314
 20
4807.6559601294
 30
0.0
 40
5.0
100
AcDbArc
 50
11.5369590328
 51
90.0
  0
LINE
  5
218
330
1F
100
AcDbEntity
  8
0
  6
Continuous
 62
     7
370
    25
100
AcDbLine
 10
6626.5943917314
 20
4812.6559601294
 30
0.0
 11
6606.5943917314
 21
4812.6559601294
 31
0.0
  0
ARC
  5
219
330
1F
100
AcDbEntity
  8
0
  6
Continuous
 62
     7
370
    25
100
AcDbCircle
 10
6606.5943917314
 20
4807.6559601294
 30
0.0
 40
5.0
100
AcDbArc
 50
90.0
 51
168.4630409672
  0
ARC
  5
21A
330
1F
100
AcDbEntity
  8
0
  6
Continuous
 62
     7
370
    25
100
AcDbCircle
 10
6586.4943917314
 20
4807.6559601294
 30
0.0
 40
5.00000000000081
100
AcDbArc
 50
11.5369590328
 51
90.0
  0
LINE
  5
21B
330
1F
100
AcDbEntity
  8
0
  6
Continuous
 62
     7
370
    25
100
AcDbLine
 10
6586.4943917314
 20
4812.6559601294
 30
0.0
 11
6566.4943917314
 21
4812.6559601294
 31
0.0
  0
ARC
  5
21C
330
1F
100
AcDbEntity
  8
0
  6
Continuous
 62
     7
370
    25
100
AcDbCircle
 10
6566.4943917314
 20
4807.6559601294
 30
0.0
 40
5.0
100
AcDbArc
 50
90.0
 51
168.4630409672
  0
ARC
  5
21D
330
1F
100
AcDbEntity
  8
0
  6
Continuous
 62
     7
370
    25
100
AcDbCircle
 10
6546.3943917314
 20
4807.6559601294
 30
0.0
 40
5.0
100
AcDbArc
 50
11.5369590328
 51
90.0
  0
LINE
  5
21E
330
1F
100
AcDbEntity
  8
0
  6
Continuous
 62
     7
370
    25
100
AcDbLine
 10
6546.3943917314
 20
4812.6559601294
 30
0.0
 11
6526.3943917314
 21
4812.6559601294
 31
0.0
  0
ARC
  5
21F
330
1F
100
AcDbEntity
  8
0
  6
Continuous
 62
     7
370
    25
100
AcDbCircle
 10
6526.3943917314
 20
4807.6559601294
 30
0.0
 40
5.00000000000081
100
AcDbArc
 50
90.0
 51
168.4630409672
  0
ARC
  5
220
330
1F
100
AcDbEntity
  8
0
  6
Continuous
 62
     7
370
    25
100
AcDbCircle
 10
6506.2943917314
 20
4807.6559601294
 30
0.0
 40
5.0
100
AcDbArc
 50
11.5369590328
 51
90.0
  0
LINE
  5
221
330
1F
100
AcDbEntity
  8
0
  6
Continuous
 62
     7
370
    25
100
AcDbLine
 10
6506.2943917314
 20
4812.6559601294
 30
0.0
 11
6486.2943917314
 21
4812.6559601294
 31
0.0
  0
ARC
  5
222
330
1F
100
AcDbEntity
  8
0
  6
Continuous
 62
     7
370
    25
100
AcDbCircle
 10
6486.2943917314
 20
4807.6559601294
 30
0.0
 40
5.0
100
AcDbArc
 50
90.0
 51
168.4630409672
  0
ARC
  5
223
330
1F
100
AcDbEntity
  8
0
  6
Continuous
 62
     7
370
    25
100
AcDbCircle
 10
6466.1943917314
 20
4807.6559601294
 30
0.0
 40
5.00000000000081
100
AcDbArc
 50
11.5369590328
 51
90.0
  0
LINE
  5
224
330
1F
100
AcDbEntity
  8
0
  6
Continuous
 62
     7
370
    25
100
AcDbLine
 10
6466.1943917314
 20
4812.6559601294
 30
0.0
 11
6446.1943917314
 21
4812.6559601294
 31
0.0
  0
ARC
  5
225
330
1F
100
AcDbEntity
  8
0
  6
Continuous
 62
     7
370
    25
100
AcDbCircle
 10
6446.1943917314
 20
4807.6559601294
 30
0.0
 40
5.0
100
AcDbArc
 50
90.0
 51
168.4630409672
  0
ARC
  5
226
330
1F
100
AcDbEntity
  8
0
  6
Continuous
 62
     7
370
    25
100
AcDbCircle
 10
6426.0943917314
 20
4807.6559601294
 30
0.0
 40
5.0
100
AcDbArc
 50
11.5369590328
 51
90.0
  0
LINE
  5
227
330
1F
100
AcDbEntity
  8
0
  6
Continuous
 62
     7
370
    25
100
AcDbLine
 10
6426.0943917314
 20
4812.6559601294
 30
0.0
 11
6406.0943917314
 21
4812.6559601294
 31
0.0
  0
ARC
  5
228
330
1F
100
AcDbEntity
  8
0
  6
Continuous
 62
     7
370
    25
100
AcDbCircle
 10
6406.0943917314
 20
4807.6559601294
 30
0.0
 40
5.0
100
AcDbArc
 50
90.0
 51
168.4630409672
  0
ARC
  5
229
330
1F
100
AcDbEntity
  8
0
  6
Continuous
 62
     7
370
    25
100
AcDbCircle
 10
6385.9943917314
 20
4807.6559601294
 30
0.0
 40
5.0
100
AcDbArc
 50
11.5369590328
 51
90.0
  0
LINE
  5
22A
330
1F
100
AcDbEntity
  8
0
  6
Continuous
 62
     7
370
    25
100
AcDbLine
 10
6385.9943917314
 20
4812.6559601294
 30
0.0
 11
6365.9943917314
 21
4812.6559601294
 31
0.0
  0
ARC
  5
22B
330
1F
100
AcDbEntity
  8
0
  6
Continuous
 62
     7
370
    25
100
AcDbCircle
 10
6365.9943917314
 20
4807.6559601294
 30
0.0
 40
5.0
100
AcDbArc
 50
90.0
 51
168.4630409672
  0
ARC
  5
22C
330
1F
100
AcDbEntity
  8
0
  6
Continuous
 62
     7
370
    25
100
AcDbCircle
 10
6345.8943917314
 20
4807.6559601294
 30
0.0
 40
5.00000000000081
100
AcDbArc
 50
11.5369590328
 51
90.0
  0
LINE
  5
22D
330
1F
100
AcDbEntity
  8
0
  6
Continuous
 62
     7
370
    25
100
AcDbLine
 10
6345.8943917314
 20
4812.6559601294
 30
0.0
 11
6325.8943917314
 21
4812.6559601294
 31
0.0
  0
ARC
  5
22E
330
1F
100
AcDbEntity
  8
0
  6
Continuous
 62
     7
370
    25
100
AcDbCircle
 10
6325.8943917314
 20
4807.6559601294
 30
0.0
 40
5.00000000000081
100
AcDbArc
 50
90.0
 51
168.4630409672
  0
ARC
  5
22F
330
1F
100
AcDbEntity
  8
0
  6
Continuous
 62
     7
370
    25
100
AcDbCircle
 10
6305.7943917314
 20
4807.6559601294
 30
0.0
 40
5.0
100
AcDbArc
 50
11.5369590328
 51
90.0
  0
LINE
  5
230
330
1F
100
AcDbEntity
  8
0
  6
Continuous
 62
     7
370
    25
100
AcDbLine
 10
6305.7943917314
 20
4812.6559601294
 30
0.0
 11
6285.7943917314
 21
4812.6559601294
 31
0.0
  0
ARC
  5
231
330
1F
100
AcDbEntity
  8
0
  6
Continuous
 62
     7
370
    25
100
AcDbCircle
 10
6285.7943917314
 20
4807.6559601294
 30
0.0
 40
5.0
100
AcDbArc
 50
90.0
 51
168.4630409672
  0
ARC
  5
232
330
1F
100
AcDbEntity
  8
0
  6
Continuous
 62
     7
370
    25
100
AcDbCircle
 10
6265.6943917314
 20
4807.6559601294
 30
0.0
 40
5.00000000000081
100
AcDbArc
 50
11.5369590328
 51
90.0
  0
LINE
  5
233
330
1F
100
AcDbEntity
  8
0
  6
Continuous
 62
     7
370
    25
100
AcDbLine
 10
6265.6943917314
 20
4812.6559601294
 30
0.0
 11
6245.6943917314
 21
4812.6559601294
 31
0.0
  0
ARC
  5
234
330
1F
100
AcDbEntity
  8
0
  6
Continuous
 62
     7
370
    25
100
AcDbCircle
 10
6245.6943917314
 20
4807.6559601294
 30
0.0
 40
5.0
100
AcDbArc
 50
90.0
 51
168.4630409672
  0
ARC
  5
235
330
1F
100
AcDbEntity
  8
0
  6
Continuous
 62
     7
370
    25
100
AcDbCircle
 10
6225.5943917314
 20
4807.6559601294
 30
0.0
 40
5.0
100
AcDbArc
 50
11.5369590328
 51
90.0
  0
LINE
  5
236
330
1F
100
AcDbEntity
  8
0
  6
Continuous
 62
     7
370
    25
100
AcDbLine
 10
6225.5943917314
 20
4812.6559601294
 30
0.0
 11
6205.5943917314
 21
4812.6559601294
 31
0.0
  0
ARC
  5
237
330
1F
100
AcDbEntity
  8
0
  6
Continuous
 62
     7
370
    25
100
AcDbCircle
 10
6205.5943917314
 20
4807.6559601294
 30
0.0
 40
5.00000000000081
100
AcDbArc
 50
90.0
 51
168.4630409672
  0
LINE
  5
238
330
1F
100
AcDbEntity
  8
0
  6
Continuous
 62
     7
370
    25
100
AcDbLine
 10
6115.3943917314
 20
4861.4559601294
 30
0.0
 11
7319.9943917314
 21
4861.4559601294
 31
0.0
  0
ARC
  5
239
330
1F
100
AcDbEntity
  8
0
  6
Continuous
 62
     7
370
    25
100
AcDbCircle
 10
6145.3943917314
 20
4847.6559601294
 30
0.0
 40
5.0
100
AcDbArc
 50
270.0
 51
90.0
  0
LINE
  5
23A
330
1F
100
AcDbEntity
  8
0
  6
Continuous
 62
     7
370
    25
100
AcDbLine
 10
6145.3943917314
 20
4852.6559601294
 30
0.0
 11
6125.3943917314
 21
4852.6559601294
 31
0.0
  0
ARC
  5
23B
330
1F
100
AcDbEntity
  8
0
  6
Continuous
 62
     7
370
    25
100
AcDbCircle
 10
6125.3943917314
 20
4847.6559601294
 30
0.0
 40
5.0
100
AcDbArc
 50
90.0
 51
270.0
  0
LINE
  5
23C
330
1F
100
AcDbEntity
  8
0
  6
Continuous
 62
     7
370
    25
100
AcDbLine
 10
6125.3943917314
 20
4842.6559601294
 30
0.0
 11
6145.3943917314
 21
4842.6559601294
 31
0.0
  0
ARC
  5
23D
330
1F
100
AcDbEntity
  8
0
  6
Continuous
 62
     7
370
    25
100
AcDbCircle
 10
6145.3943917314
 20
4827.6559601294
 30
0.0
 40
5.000000000000909
100
AcDbArc
 50
270.0
 51
90.0
  0
LINE
  5
23E
330
1F
100
AcDbEntity
  8
0
  6
Continuous
 62
     7
370
    25
100
AcDbLine
 10
6145.3943917314
 20
4832.6559601294
 30
0.0
 11
6125.3943917314
 21
4832.6559601294
 31
0.0
  0
ARC
  5
23F
330
1F
100
AcDbEntity
  8
0
  6
Continuous
 62
     7
370
    25
100
AcDbCircle
 10
6125.3943917314
 20
4827.6559601294
 30
0.0
 40
5.000000000000909
100
AcDbArc
 50
90.0
 51
270.0
  0
LINE
  5
240
330
1F
100
AcDbEntity
  8
0
  6
Continuous
 62
     7
370
    25
100
AcDbLine
 10
6125.3943917314
 20
4822.6559601294
 30
0.0
 11
6145.3943917314
 21
4822.6559601294
 31
0.0
  0
ARC
  5
241
330
1F
100
AcDbEntity
  8
0
  6
Continuous
 62
     7
370
    25
100
AcDbCircle
 10
6145.3943917314
 20
4807.6559601294
 30
0.0
 40
5.000000000001701
100
AcDbArc
 50
11.5369590328
 51
90.0
  0
LINE
  5
242
330
1F
100
AcDbEntity
  8
0
  6
Continuous
 62
     7
370
    25
100
AcDbLine
 10
6145.3943917314
 20
4812.6559601294
 30
0.0
 11
6125.3943917314
 21
4812.6559601294
 31
0.0
  0
ARC
  5
243
330
1F
100
AcDbEntity
  8
0
  6
Continuous
 62
     7
370
    25
100
AcDbCircle
 10
6125.3943917314
 20
4807.6559601294
 30
0.0
 40
5.0
100
AcDbArc
 50
90.0
 51
270.0
  0
LINE
  5
244
330
1F
100
AcDbEntity
  8
0
  6
Continuous
 62
     7
370
    25
100
AcDbLine
 10
6125.3943917314
 20
4802.6559601294
 30
0.0
 11
6143.5656722013
 21
4802.6559601294
 31
0.0
  0
ARC
  5
245
330
1F
100
AcDbEntity
  8
0
  6
Continuous
 62
     7
370
    25
100
AcDbCircle
 10
6185.4943917314
 20
4807.6559601294
 30
0.0
 40
5.0
100
AcDbArc
 50
11.5369590328
 51
90.0
  0
LINE
  5
246
330
1F
100
AcDbEntity
  8
0
  6
Continuous
 62
     7
370
    25
100
AcDbLine
 10
6185.4943917314
 20
4812.6559601294
 30
0.0
 11
6165.4943917314
 21
4812.6559601294
 31
0.0
  0
ARC
  5
247
330
1F
100
AcDbEntity
  8
0
  6
Continuous
 62
     7
370
    25
100
AcDbCircle
 10
6165.4943917314
 20
4807.6559601294
 30
0.0
 40
5.0
100
AcDbArc
 50
90.0
 51
168.4630409672
  0
ARC
  5
248
330
1F
100
AcDbEntity
  8
0
  6
Continuous
 62
     7
370
    25
100
AcDbCircle
 10
6185.4943917314
 20
4847.6559601294
 30
0.0
 40
5.0
100
AcDbArc
 50
270.0
 51
90.0
  0
LINE
  5
249
330
1F
100
AcDbEntity
  8
0
  6
Continuous
 62
     7
370
    25
100
AcDbLine
 10
6185.4943917314
 20
4852.6559601294
 30
0.0
 11
6165.4943917314
 21
4852.6559601294
 31
0.0
  0
ARC
  5
24A
330
1F
100
AcDbEntity
  8
0
  6
Continuous
 62
     7
370
    25
100
AcDbCircle
 10
6165.4943917314
 20
4847.6559601294
 30
0.0
 40
5.0
100
AcDbArc
 50
90.0
 51
270.0
  0
LINE
  5
24B
330
1F
100
AcDbEntity
  8
0
  6
Continuous
 62
     7
370
    25
100
AcDbLine
 10
6165.4943917314
 20
4842.6559601294
 30
0.0
 11
6185.4943917314
 21
4842.6559601294
 31
0.0
  0
ARC
  5
24C
330
1F
100
AcDbEntity
  8
0
  6
Continuous
 62
     7
370
    25
100
AcDbCircle
 10
6185.4943917314
 20
4827.6559601294
 30
0.0
 40
5.000000000000909
100
AcDbArc
 50
270.0
 51
90.0
  0
LINE
  5
24D
330
1F
100
AcDbEntity
  8
0
  6
Continuous
 62
     7
370
    25
100
AcDbLine
 10
6185.4943917314
 20
4832.6559601294
 30
0.0
 11
6165.4943917314
 21
4832.6559601294
 31
0.0
  0
ARC
  5
24E
330
1F
100
AcDbEntity
  8
0
  6
Continuous
 62
     7
370
    25
100
AcDbCircle
 10
6165.4943917314
 20
4827.6559601294
 30
0.0
 40
5.000000000000909
100
AcDbArc
 50
90.0
 51
270.0
  0
LINE
  5
24F
330
1F
100
AcDbEntity
  8
0
  6
Continuous
 62
     7
370
    25
100
AcDbLine
 10
6165.4943917314
 20
4822.6559601294
 30
0.0
 11
6185.4943917314
 21
4822.6559601294
 31
0.0
  0
LINE
  5
250
330
1F
100
AcDbEntity
  8
0
  6
Continuous
 62
     7
370
    25
100
AcDbLine
 10
7319.9943917314
 20
4861.4559601294
 30
0.0
 11
7319.9943917314
 21
4792.6559601294
 31
0.0
  0
LINE
  5
251
330
1F
100
AcDbEntity
  8
0
  6
Continuous
 62
     7
370
    25
100
AcDbLine
 10
6115.3943917314
 20
4792.6559601294
 30
0.0
 11
6115.3943917314
 21
4861.4559601294
 31
0.0
  0
LINE
  5
252
330
1F
100
AcDbEntity
  8
0
  6
Continuous
 62
     7
370
    25
100
AcDbLine
 10
6750.9443917314
 20
4788.8603238956
 30
0.0
 11
6684.4443917314
 21
4788.8603238956
 31
0.0
  0
LINE
  5
253
330
1F
100
AcDbEntity
  8
0
  6
Continuous
 62
     7
370
    25
100
AcDbLine
 10
6677.6943917314
 20
4787.3522492817
 30
0.0
 11
6757.6943917314
 21
4787.3522492817
 31
0.0
  0
LINE
  5
254
330
1F
100
AcDbEntity
  8
0
  6
Continuous
 62
     7
370
    25
100
AcDbLine
 10
6682.9038075536
 20
4740.5487952442
 30
0.0
 11
6682.6545763823
 21
4778.8559601294
 31
0.0
  0
LWPOLYLINE
  5
255
330
1F
100
AcDbEntity
  8
0
  6
Continuous
 62
     7
370
    25
100
AcDbPolyline
 90
       18
 70
   128
 43
0.0
 10
6761.4485065861
 20
4764.1554330118
 10
6761.4935838065
 20
4764.1863128487
 10
6760.7502795628
 20
4763.6832996872
 10
6759.2088247261
 20
4762.6571442229
 10
6757.1269922326
 20
4761.303403053
 10
6754.4891699243
 20
4759.6397117832
 10
6751.3902143732
 20
4757.756649172
 10
6747.8056304528
 20
4755.6748448887
 10
6743.8422287263
 20
4753.4851507067
 10
6739.5769641013
 20
4751.2556169895
 10
6733.0952851298
 20
4748.1153333394
 10
6726.2192851466
 20
4745.087748166
 10
6719.5534629119
 20
4742.443409247
 10
6712.8178453788
 20
4740.0436636984
 10
6706.3871615353
 20
4738.0042060316
 10
6700.2232264349
 20
4736.2674280082
 10
6694.5615809187
 20
4734.8597749037
 10
6689.5371861456
 20
4733.7543641908
  0
LWPOLYLINE
  5
256
330
1F
100
AcDbEntity
  8
0
  6
Continuous
 62
     7
370
    25
100
AcDbPolyline
 90
        9
 70
   128
 43
0.0
 10
6682.9038075536
 20
4740.5487952442
 10
6683.1675793597
 20
4739.076285023
 10
6683.6577662339
 20
4737.6738552218
 10
6684.3519682075
 20
4736.4055923872
 10
6685.2184624753
 20
4735.3294520655
 10
6686.2176530269
 20
4734.4946104198
 10
6687.3038800568
 20
4733.9392170373
 10
6688.4275064715
 20
4733.6886516154
 10
6689.5371861456
 20
4733.7543641908
  0
ARC
  5
257
330
1F
100
AcDbEntity
  8
0
  6
Continuous
 62
     7
370
    25
100
AcDbCircle
 10
6683.7520835553
 20
4782.0933095458
 30
0.0
 40
1.791632486069868
100
AcDbArc
 50
100.3196220905
 51
187.6127302624
  0
LINE
  5
258
330
1F
100
AcDbEntity
  8
0
  6
Continuous
 62
     7
370
    25
100
AcDbLine
 10
6683.4311320242
 20
4783.8559601294
 30
0.0
 11
6764.6943917314
 21
4783.8559601294
 31
0.0
  0
LINE
  5
259
330
1F
100
AcDbEntity
  8
0
  6
Continuous
 62
     7
370
    25
100
AcDbLine
 10
6681.9762422843
 20
4781.8559601294
 30
0.0
 11
6681.9762422843
 21
4778.8559601294
 31
0.0
  0
LINE
  5
25A
330
1F
100
AcDbEntity
  8
0
  6
Continuous
 62
     7
370
    25
100
AcDbLine
 10
6681.9762422843
 20
4778.8559601294
 30
0.0
 11
6766.6943917314
 21
4778.8559601294
 31
0.0
  0
LINE
  5
25B
330
1F
100
AcDbEntity
  8
0
  6
Continuous
 62
     7
370
    25
100
AcDbLine
 10
6675.9443917314
 20
4786.8559601294
 30
0.0
 11
6759.4443917314
 21
4786.8559601294
 31
0.0
  0
LINE
  5
25C
330
1F
100
AcDbEntity
  8
0
  6
Continuous
 62
     7
370
    25
100
AcDbLine
 10
6693.8500239544
 20
4711.6727214913
 30
0.0
 11
6693.4061435342
 21
4734.5928676332
 31
0.0
  0
LINE
  5
25D
330
1F
100
AcDbEntity
  8
0
  6
Continuous
 62
     7
370
    25
100
AcDbLine
 10
6681.9762422843
 20
4781.8559601294
 30
0.0
 11
6664.438144111
 21
4781.8559601294
 31
0.0
  0
ARC
  5
25E
330
1F
100
AcDbEntity
  8
0
  6
Continuous
 62
     7
370
    25
100
AcDbCircle
 10
6667.493414959
 20
4782.3398564755
 30
0.0
 40
3.093353459913901
100
AcDbArc
 50
150.6517591701
 51
188.9997984493
  0
LINE
  5
25F
330
1F
100
AcDbEntity
  8
0
  6
Continuous
 62
     7
370
    25
100
AcDbLine
 10
6664.7970720026
 20
4783.8559601294
 30
0.0
 11
6683.4311320242
 21
4783.8559601294
 31
0.0
  0
LINE
  5
260
330
1F
100
AcDbEntity
  8
0
  6
Continuous
 62
     7
370
    25
100
AcDbLine
 10
6664.438144111
 20
4781.8559601294
 30
0.0
 11
6664.438144111
 21
4778.8559601294
 31
0.0
  0
LINE
  5
261
330
1F
100
AcDbEntity
  8
0
  6
Continuous
 62
     7
370
    25
100
AcDbLine
 10
6664.438144111
 20
4778.8559601294
 30
0.0
 11
6681.9762422843
 21
4778.8559601294
 31
0.0
  0
ARC
  5
262
330
1F
100
AcDbEntity
  8
0
  6
Continuous
 62
     7
370
    25
100
AcDbCircle
 10
6651.0692662576
 20
4865.2726370684
 30
0.0
 40
128.7224717713362
100
AcDbArc
 50
276.5444516408
 51
284.318474563
  0
LWPOLYLINE
  5
263
330
1F
100
AcDbEntity
  8
0
  6
Continuous
 62
     7
370
    25
100
AcDbPolyline
 90
        6
 70
   128
 43
0.0
 10
6665.7402838272
 20
4737.3889556138
 10
6665.9134535022
 20
4736.0454910576
 10
6666.1799449532
 20
4734.7050558223
 10
6666.9063931823
 20
4732.4789494701
 10
6667.8060275605
 20
4731.0369170266
 10
6668.742112563
 20
4730.5919571604
  0
ARC
  5
264
330
1F
100
AcDbEntity
  8
0
  6
Continuous
 62
     7
370
    25
100
AcDbCircle
 10
6649.1120032615
 20
4929.6262728167
 30
0.0
 40
199.9999999998797
100
AcDbArc
 50
275.6326806459
 51
281.6613043232
  0
LINE
  5
265
330
1F
100
AcDbEntity
  8
0
  6
Continuous
 62
     7
370
    25
100
AcDbLine
 10
6665.7402838272
 20
4737.3889556138
 30
0.0
 11
6665.6790454021
 21
4778.8559601294
 31
0.0
  0
LINE
  5
266
330
1F
100
AcDbEntity
  8
0
  6
Continuous
 62
     7
370
    25
100
AcDbLine
 10
6742.9375354388
 20
4704.8559601294
 30
0.0
 11
6700.2615634311
 21
4704.8559601294
 31
0.0
  0
ARC
  5
267
330
1F
100
AcDbEntity
  8
0
  6
Continuous
 62
     7
370
    25
100
AcDbCircle
 10
6700.5611136351
 20
4711.5612872626
 30
0.0
 40
6.712014771173247
100
AcDbArc
 50
179.0487201604
 51
267.4420996518
  0
LINE
  5
268
330
1F
100
AcDbEntity
  8
0
  6
Continuous
 62
     7
370
    25
100
AcDbLine
 10
6593.9427117559
 20
4777.5513327297
 30
0.0
 11
6594.3925706945
 21
4726.0026042125
 31
0.0
  0
LINE
  5
269
330
1F
100
AcDbEntity
  8
0
  6
Continuous
 62
     7
370
    25
100
AcDbLine
 10
6567.8162707926
 20
4771.5476699133
 30
0.0
 11
6568.1653305511
 21
4731.5493833754
 31
0.0
  0
LINE
  5
26A
330
1F
100
AcDbEntity
  8
0
  6
Continuous
 62
     7
370
    25
100
AcDbLine
 10
6664.438144111
 20
4781.8559601294
 30
0.0
 11
6658.6943917314
 21
4781.8559601294
 31
0.0
  0
ARC
  5
26B
330
1F
100
AcDbEntity
  8
0
  6
Continuous
 62
     7
370
    25
100
AcDbCircle
 10
6660.6943917314
 20
4781.8559601294
 30
0.0
 40
2.000000000000909
100
AcDbArc
 50
90.0
 51
180.0
  0
LINE
  5
26C
330
1F
100
AcDbEntity
  8
0
  6
Continuous
 62
     7
370
    25
100
AcDbLine
 10
6660.6943917314
 20
4783.8559601294
 30
0.0
 11
6664.7970720026
 21
4783.8559601294
 31
0.0
  0
LINE
  5
26D
330
1F
100
AcDbEntity
  8
0
  6
Continuous
 62
     7
370
    25
100
AcDbLine
 10
6658.6943917314
 20
4781.8559601294
 30
0.0
 11
6658.6943917314
 21
4778.8559601294
 31
0.0
  0
LINE
  5
26E
330
1F
100
AcDbEntity
  8
0
  6
Continuous
 62
     7
370
    25
100
AcDbLine
 10
6658.6943917314
 20
4778.8559601294
 30
0.0
 11
6664.438144111
 21
4778.8559601294
 31
0.0
  0
LINE
  5
26F
330
1F
100
AcDbEntity
  8
0
  6
Continuous
 62
     7
370
    25
100
AcDbLine
 10
6624.0434531513
 20
4732.0369291642
 30
0.0
 11
6623.6943917314
 21
4772.0354060868
 31
0.0
  0
LINE
  5
270
330
1F
100
AcDbEntity
  8
0
  6
Continuous
 62
     7
370
    25
100
AcDbLine
 10
6603.7532620178
 20
4771.8613824841
 30
0.0
 11
6604.1023234377
 21
4731.8629055616
 31
0.0
  0
ARC
  5
271
330
1F
100
AcDbEntity
  8
0
  6
Continuous
 62
     7
370
    25
100
AcDbCircle
 10
6664.369884084
 20
4781.129053464
 30
0.0
 40
43.76156024872501
100
AcDbArc
 50
265.6588877915
 51
271.794519202
  0
LWPOLYLINE
  5
272
330
1F
100
AcDbEntity
  8
0
  6
Continuous
 62
     7
370
    25
100
AcDbPolyline
 90
       11
 70
   128
 43
0.0
 10
6660.7939596761
 20
4767.446603753
 10
6660.9512558849
 20
4765.4024864831
 10
6661.3153229804
 20
4763.2102823623
 10
6662.0266970294
 20
4759.7952160849
 10
6662.6995075462
 20
4756.179631949
 10
6662.9725935735
 20
4753.6455674633
 10
6662.9985785439
 20
4751.0461306796
 10
6662.3805035596
 20
4746.0448331767
 10
6661.7298924244
 20
4742.6846634284
 10
6661.1923890728
 20
4739.4113703302
 10
6661.0573906217
 20
4737.4930376827
  0
LINE
  5
273
330
1F
100
AcDbEntity
  8
0
  6
Continuous
 62
     7
370
    25
100
AcDbLine
 10
6660.7939596761
 20
4767.446603753
 30
0.0
 11
6660.6943917314
 21
4778.8559601294
 31
0.0
  0
ARC
  5
274
330
1F
100
AcDbEntity
  8
0
  6
Continuous
 62
     7
370
    25
100
AcDbCircle
 10
6668.0550587375
 20
4737.5581582084
 30
0.0
 40
6.999999999999602
100
AcDbArc
 50
181.914945567
 51
275.6326806459
  0
LWPOLYLINE
  5
275
330
1F
100
AcDbEntity
  8
0
  6
Continuous
 62
     7
370
    25
100
AcDbPolyline
 90
        4
 70
   128
 43
0.0
 10
6661.0573993002
 20
4737.4930418648
 10
6661.0573986325
 20
4737.4929966106
 10
6661.0589711447
 20
4737.324328975
 10
6661.058972642
 20
4737.3242842697
  0
LWPOLYLINE
  5
276
330
1F
100
AcDbEntity
  8
0
  6
Continuous
 62
     7
370
    25
100
AcDbPolyline
 90
       12
 70
   128
 43
0.0
 10
6659.0463923819
 20
4738.8270885083
 10
6659.236565422
 20
4740.5711902156
 10
6659.9565419817
 20
4743.477898764
 10
6660.8655124018
 20
4746.602944972
 10
6661.4003635077
 20
4748.8357521878
 10
6661.7136975368
 20
4751.1502834043
 10
6661.6803990248
 20
4753.5027527035
 10
6661.3255277205
 20
4755.8168271147
 10
6660.4323981501
 20
4759.1160820988
 10
6659.4892211773
 20
4762.2069150028
 10
6659.0081375038
 20
4764.2029777491
 10
6658.8060051632
 20
4766.0576009359
  0
ARC
  5
277
330
1F
100
AcDbEntity
  8
0
  6
Continuous
 62
     7
370
    25
100
AcDbCircle
 10
6659.0554942883
 20
4767.8176210909
 30
0.0
 40
1.777615191625212
100
AcDbArc
 50
261.931873147
 51
347.952862863
  0
ARC
  5
278
330
1F
100
AcDbEntity
  8
0
  6
Continuous
 62
     7
370
    25
100
AcDbCircle
 10
6659.2992758153
 20
4737.0255419874
 30
0.0
 40
1.819208590990293
100
AcDbArc
 50
14.8907936099
 51
97.9904121159
  0
LINE
  5
279
330
1F
100
AcDbEntity
  8
0
  6
Continuous
 62
     7
370
    25
100
AcDbLine
 10
6659.0481256329
 20
4738.6286889466
 30
0.0
 11
6659.0464094463
 21
4738.8270884049
 31
0.0
  0
LINE
  5
27A
330
1F
100
AcDbEntity
  8
0
  6
Continuous
 62
     7
370
    25
100
AcDbLine
 10
6659.4475340522
 20
4736.4717987753
 30
0.0
 11
6659.0481197511
 21
4738.6286888106
 31
0.0
  0
LINE
  5
27B
330
1F
100
AcDbEntity
  8
0
  6
Continuous
 62
     7
370
    25
100
AcDbLine
 10
6499.2649216691
 20
4770.9494313527
 30
0.0
 11
6499.6139814276
 21
4730.9511448148
 31
0.0
  0
LINE
  5
27C
330
1F
100
AcDbEntity
  8
0
  6
Continuous
 62
     7
370
    25
100
AcDbLine
 10
6495.7791914963
 20
4770.6337017812
 30
0.0
 11
6496.1232719076
 21
4731.2059919194
 31
0.0
  0
LINE
  5
27D
330
1F
100
AcDbEntity
  8
0
  6
Continuous
 62
     7
370
    25
100
AcDbLine
 10
6495.7791914963
 20
4768.4189166503
 30
0.0
 11
6496.0846185773
 21
4733.4204397277
 31
0.0
  0
ARC
  5
27E
330
1F
100
AcDbEntity
  8
0
  6
Continuous
 62
     7
370
    25
100
AcDbCircle
 10
6659.3481021408
 20
4736.8890410623
 30
0.0
 40
1.765353851705114
100
AcDbArc
 50
14.2723990243
 51
99.7836484596
  0
ARC
  5
27F
330
1F
100
AcDbEntity
  8
0
  6
Continuous
 62
     7
370
    25
100
AcDbCircle
 10
6659.8070484165
 20
4734.8087794623
 30
0.0
 40
1.701435809415976
100
AcDbArc
 50
23.1834570492
 51
102.1985801329
  0
LINE
  5
280
330
1F
100
AcDbEntity
  8
0
  6
Continuous
 62
     7
370
    25
100
AcDbLine
 10
6156.8943917314
 20
4694.6559601294
 30
0.0
 11
6156.8943917314
 21
4689.6559601294
 31
0.0
  0
LINE
  5
281
330
1F
100
AcDbEntity
  8
0
  6
Continuous
 62
     7
370
    25
100
AcDbLine
 10
6156.8943917314
 20
4694.6559601294
 30
0.0
 11
6160.3943917314
 21
4694.6559601294
 31
0.0
  0
LINE
  5
282
330
1F
100
AcDbEntity
  8
0
  6
Continuous
 62
     7
370
    25
100
AcDbLine
 10
6173.8943917314
 20
4694.6559601294
 30
0.0
 11
6173.8943917314
 21
4689.6559601294
 31
0.0
  0
LINE
  5
283
330
1F
100
AcDbEntity
  8
0
  6
Continuous
 62
     7
370
    25
100
AcDbLine
 10
6170.3943917314
 20
4694.6559601294
 30
0.0
 11
6173.8943917314
 21
4694.6559601294
 31
0.0
  0
LINE
  5
284
330
1F
100
AcDbEntity
  8
0
  6
Continuous
 62
     7
370
    25
100
AcDbLine
 10
7269.9943917314
 20
4694.6559601294
 30
0.0
 11
7269.9943917314
 21
4687.6559601294
 31
0.0
  0
LINE
  5
285
330
1F
100
AcDbEntity
  8
0
  6
Continuous
 62
     7
370
    25
100
AcDbLine
 10
7269.9943917314
 20
4694.6559601294
 30
0.0
 11
7278.4943917314
 21
4694.6559601294
 31
0.0
  0
LINE
  5
286
330
1F
100
AcDbEntity
  8
0
  6
Continuous
 62
     7
370
    25
100
AcDbLine
 10
7278.4943917314
 20
4694.6559601294
 30
0.0
 11
7278.4943917314
 21
4687.6559601294
 31
0.0
  0
LINE
  5
287
330
1F
100
AcDbEntity
  8
0
  6
Continuous
 62
     7
370
    25
100
AcDbLine
 10
7269.9943917314
 20
4687.6559601294
 30
0.0
 11
7278.4943917314
 21
4687.6559601294
 31
0.0
  0
LINE
  5
288
330
1F
100
AcDbEntity
  8
0
  6
Continuous
 62
     7
370
    25
100
AcDbLine
 10
7261.4943917314
 20
4694.6559601294
 30
0.0
 11
7261.4943917314
 21
4687.6559601294
 31
0.0
  0
LINE
  5
289
330
1F
100
AcDbEntity
  8
0
  6
Continuous
 62
     7
370
    25
100
AcDbLine
 10
7261.4943917314
 20
4694.6559601294
 30
0.0
 11
7269.9943917314
 21
4694.6559601294
 31
0.0
  0
LINE
  5
28A
330
1F
100
AcDbEntity
  8
0
  6
Continuous
 62
     7
370
    25
100
AcDbLine
 10
7261.4943917314
 20
4687.6559601294
 30
0.0
 11
7269.9943917314
 21
4687.6559601294
 31
0.0
  0
LINE
  5
28B
330
1F
100
AcDbEntity
  8
0
  6
Continuous
 62
     7
370
    25
100
AcDbLine
 10
7269.9943917314
 20
4774.6559601294
 30
0.0
 11
7273.9943917314
 21
4774.6559601294
 31
0.0
  0
LINE
  5
28C
330
1F
100
AcDbEntity
  8
0
  6
Continuous
 62
     7
370
    25
100
AcDbLine
 10
7265.9943917314
 20
4774.6559601294
 30
0.0
 11
7269.9943917314
 21
4774.6559601294
 31
0.0
  0
LINE
  5
28D
330
1F
100
AcDbEntity
  8
0
  6
Continuous
 62
     7
370
    25
100
AcDbLine
 10
7283.9943917314
 20
4689.6559601294
 30
0.0
 11
7283.9943917314
 21
4687.6559601294
 31
0.0
  0
LINE
  5
28E
330
1F
100
AcDbEntity
  8
0
  6
Continuous
 62
     7
370
    25
100
AcDbLine
 10
7233.9943917314
 20
4689.6559601294
 30
0.0
 11
7261.4943917314
 21
4689.6559601294
 31
0.0
  0
LINE
  5
28F
330
1F
100
AcDbEntity
  8
0
  6
Continuous
 62
     7
370
    25
100
AcDbLine
 10
7278.4943917314
 20
4689.6559601294
 30
0.0
 11
7283.9943917314
 21
4689.6559601294
 31
0.0
  0
LINE
  5
290
330
1F
100
AcDbEntity
  8
0
  6
Continuous
 62
     7
370
    25
100
AcDbLine
 10
7233.9943917314
 20
4689.6559601294
 30
0.0
 11
7233.9943917314
 21
4687.6559601294
 31
0.0
  0
LINE
  5
291
330
1F
100
AcDbEntity
  8
0
  6
Continuous
 62
     7
370
    25
100
AcDbLine
 10
7233.9943917314
 20
4687.6559601294
 30
0.0
 11
7261.4943917314
 21
4687.6559601294
 31
0.0
  0
LINE
  5
292
330
1F
100
AcDbEntity
  8
0
  6
Continuous
 62
     7
370
    25
100
AcDbLine
 10
7278.4943917314
 20
4687.6559601294
 30
0.0
 11
7283.9943917314
 21
4687.6559601294
 31
0.0
  0
LINE
  5
293
330
1F
100
AcDbEntity
  8
0
  6
Continuous
 62
     7
370
    25
100
AcDbLine
 10
6151.3943917314
 20
4687.6559601294
 30
0.0
 11
6201.3943917314
 21
4687.6559601294
 31
0.0
  0
LINE
  5
294
330
1F
100
AcDbEntity
  8
0
  6
Continuous
 62
     7
370
    25
100
AcDbLine
 10
6201.3943917314
 20
4689.6559601294
 30
0.0
 11
6201.3943917314
 21
4687.6559601294
 31
0.0
  0
LINE
  5
295
330
1F
100
AcDbEntity
  8
0
  6
Continuous
 62
     7
370
    25
100
AcDbLine
 10
6151.3943917314
 20
4689.6559601294
 30
0.0
 11
6201.3943917314
 21
4689.6559601294
 31
0.0
  0
LINE
  5
296
330
1F
100
AcDbEntity
  8
0
  6
Continuous
 62
     7
370
    25
100
AcDbLine
 10
6151.3943917314
 20
4689.6559601294
 30
0.0
 11
6151.3943917314
 21
4687.6559601294
 31
0.0
  0
LINE
  5
297
330
1F
100
AcDbEntity
  8
0
  6
Continuous
 62
     7
370
    25
100
AcDbLine
 10
6161.3943917314
 20
4774.6559601294
 30
0.0
 11
6169.3943917314
 21
4774.6559601294
 31
0.0
  0
LINE
  5
298
330
1F
100
AcDbEntity
  8
0
  6
Continuous
 62
     8
370
    25
100
AcDbLine
 10
7259.9943917314
 20
4766.905846147
 30
0.0
 11
7261.4943917314
 21
4766.905846147
 31
0.0
  0
LINE
  5
299
330
1F
100
AcDbEntity
  8
0
  6
Continuous
 62
     8
370
    25
100
AcDbLine
 10
7278.4943917314
 20
4766.905846147
 30
0.0
 11
7279.9943917314
 21
4766.905846147
 31
0.0
  0
LINE
  5
29A
330
1F
100
AcDbEntity
  8
0
  6
Continuous
 62
     8
370
    25
100
AcDbLine
 10
6175.3943917314
 20
4766.905846147
 30
0.0
 11
6173.8943917314
 21
4766.905846147
 31
0.0
  0
LINE
  5
29B
330
1F
100
AcDbEntity
  8
0
  6
Continuous
 62
     8
370
    25
100
AcDbLine
 10
6156.8943917314
 20
4766.905846147
 30
0.0
 11
6155.3943917314
 21
4766.905846147
 31
0.0
  0
LINE
  5
29C
330
1F
100
AcDbEntity
  8
0
  6
Continuous
 62
     8
370
    25
100
AcDbLine
 10
6147.0943917314
 20
4808.6559601294
 30
0.0
 11
6147.0943917314
 21
4806.604418798
 31
0.0
  0
LINE
  5
29D
330
1F
100
AcDbEntity
  8
0
  6
Continuous
 62
     8
370
    25
100
AcDbLine
 10
7288.2943917314
 20
4808.6559601294
 30
0.0
 11
7288.2943917314
 21
4806.604418798
 31
0.0
  0
LINE
  5
29E
330
1F
100
AcDbEntity
  8
0
  6
Continuous
 62
     8
370
    25
100
AcDbLine
 10
6147.0943917314
 20
4802.3973608948
 30
0.0
 11
6147.0943917314
 21
4792.6559601294
 31
0.0
  0
LINE
  5
29F
330
1F
100
AcDbEntity
  8
0
  6
Continuous
 62
     8
370
    25
100
AcDbLine
 10
7288.2943917314
 20
4802.3973608948
 30
0.0
 11
7288.2943917314
 21
4792.6559601294
 31
0.0
  0
LINE
  5
2A0
330
1F
100
AcDbEntity
  8
0
  6
Continuous
 62
     8
370
    25
100
AcDbLine
 10
6678.3921655988
 20
4787.3796340557
 30
0.0
 11
6756.996617864
 21
4787.3796340557
 31
0.0
  0
LINE
  5
2A1
330
1F
100
AcDbEntity
  8
0
  6
Continuous
 62
     8
370
    25
100
AcDbLine
 10
6678.631276984
 20
4787.7937871235
 30
0.0
 11
6756.7575064788
 21
4787.7937871235
 31
0.0
  0
LWPOLYLINE
  5
2A2
330
1F
100
AcDbEntity
  8
0
  6
Continuous
 62
     8
370
    25
100
AcDbPolyline
 90
       21
 70
   128
 43
0.0
 10
6682.9038075536
 20
4740.5487952442
 10
6688.4941165059
 20
4741.5919037546
 10
6695.0373815616
 20
4742.973901828
 10
6701.9137419436
 20
4744.6176198531
 10
6709.3357944322
 20
4746.6179692691
 10
6716.8707743339
 20
4748.8969332891
 10
6724.5461835145
 20
4751.4855107802
 10
6732.2546713894
 20
4754.3687741221
 10
6736.0482117838
 20
4755.8964581446
 10
6739.7012726738
 20
4757.437504195
 10
6743.3303708397
 20
4759.0387036206
 10
6746.7600749387
 20
4760.6177030405
 10
6750.0608179524
 20
4762.1998402138
 10
6753.0980271242
 20
4763.7110002511
 10
6755.7610599383
 20
4765.0811306033
 10
6758.1251541472
 20
4766.333498265
 10
6760.2338063369
 20
4767.4799401115
 10
6761.9608343356
 20
4768.4399779752
 10
6763.6986103371
 20
4769.4254940198
 10
6764.5500715826
 20
4769.9156256991
 10
6764.5060114939
 20
4769.8901557015
  0
LINE
  5
2A3
330
1F
100
AcDbEntity
  8
0
  6
Continuous
 62
     8
370
    25
100
AcDbLine
 10
6766.6943917314
 20
4781.8559601294
 30
0.0
 11
6681.9762422843
 21
4781.8559601294
 31
0.0
  0
LINE
  5
2A4
330
1F
100
AcDbEntity
  8
0
  6
Continuous
 62
     8
370
    25
100
AcDbLine
 10
6693.8500239544
 20
4711.6727214912
 30
0.0
 11
6749.9351367136
 21
4711.6727214912
 31
0.0
  0
LINE
  5
2A5
330
1F
100
AcDbEntity
  8
0
  6
Continuous
 62
     8
370
    25
100
AcDbLine
 10
6651.0867756654
 20
4725.7602485997
 30
0.0
 11
6650.6240522362
 21
4778.7831017383
 31
0.0
  0
LINE
  5
2A6
330
1F
100
AcDbEntity
  8
0
  6
Continuous
 62
     8
370
    25
100
AcDbLine
 10
6625.6240522362
 20
4777.9033137705
 30
0.0
 11
6626.0752288693
 21
4726.2035924106
 31
0.0
  0
LINE
  5
2A7
330
1F
100
AcDbEntity
  8
0
  6
Continuous
 62
     8
370
    25
100
AcDbLine
 10
6624.110979042
 20
4728.1683734761
 30
0.0
 11
6623.6943917314
 21
4775.9045510644
 31
0.0
  0
LINE
  5
2A8
330
1F
100
AcDbEntity
  8
0
  6
Continuous
 62
     8
370
    25
100
AcDbLine
 10
6602.1144356414
 20
4775.0613824841
 30
0.0
 11
6602.5195943632
 21
4728.6347914731
 31
0.0
  0
LINE
  5
2A9
330
1F
100
AcDbEntity
  8
0
  6
Continuous
 62
     8
370
    25
100
AcDbLine
 10
6601.8694544653
 20
4774.8612244677
 30
0.0
 11
6602.2711572598
 21
4728.8306434934
 31
0.0
  0
LINE
  5
2AA
330
1F
100
AcDbEntity
  8
0
  6
Continuous
 62
     8
370
    25
100
AcDbLine
 10
6602.9522542688
 20
4775.0613824841
 30
0.0
 11
6603.3572853866
 21
4728.6494134243
 31
0.0
  0
LINE
  5
2AB
330
1F
100
AcDbEntity
  8
0
  6
Continuous
 62
     8
370
    25
100
AcDbLine
 10
6603.1980679956
 20
4774.8569413655
 30
0.0
 11
6603.5994936854
 21
4728.8581134466
 31
0.0
  0
LINE
  5
2AC
330
1F
100
AcDbEntity
  8
0
  6
Continuous
 62
     8
370
    25
100
AcDbLine
 10
6601.4532620178
 20
4772.815573233
 30
0.0
 11
6601.8193266636
 21
4730.8687196058
 31
0.0
  0
LINE
  5
2AD
330
1F
100
AcDbEntity
  8
0
  6
Continuous
 62
     8
370
    25
100
AcDbLine
 10
6599.1683865589
 20
4771.855342043
 30
0.0
 11
6599.5180408573
 21
4731.7889279727
 31
0.0
  0
ARC
  5
2AE
330
1F
100
AcDbEntity
  8
0
  6
Continuous
 62
     8
370
    25
100
AcDbCircle
 10
6693.6440523839
 20
4707.1794525766
 30
0.0
 40
4.497987308445658
100
AcDbArc
 50
87.3753972297
 51
107.4379694262
  0
LINE
  5
2AF
330
1F
100
AcDbEntity
  8
0
  6
Continuous
 62
     8
370
    25
100
AcDbLine
 10
6658.8060051632
 20
4766.0576009359
 30
0.0
 11
6658.7511677863
 21
4772.3413419366
 31
0.0
  0
LWPOLYLINE
  5
2B0
330
1F
100
AcDbEntity
  8
0
  6
Continuous
 62
     8
370
    25
100
AcDbPolyline
 90
        6
 70
   128
 43
0.0
 10
6660.3250225073
 20
4732.4086994369
 10
6660.331001413
 20
4732.3730739303
 10
6660.2687962988
 20
4732.7421430494
 10
6660.1194949327
 20
4733.5971478012
 10
6659.8797772629
 20
4734.8262974455
 10
6659.4475340522
 20
4736.4717987753
  0
ARC
  5
2B1
330
1F
100
AcDbEntity
  8
0
  6
Continuous
 62
     8
370
    25
100
AcDbCircle
 10
6647.560402866
 20
4732.7842445068
 30
0.0
 40
14.07105711225067
100
AcDbArc
 50
356.7353387325
 51
11.0392685401
  0
LINE
  5
2B2
330
1F
100
AcDbEntity
  8
0
  6
Continuous
 62
     7
370
    25
100
AcDbLine
 10
7288.2943917314
 20
4485.5682692308
 30
0.0
 11
6147.0943417314
 21
4485.5682692308
 31
0.0
  0
ARC
  5
2B3
330
1F
100
AcDbEntity
  8
0
  6
Continuous
 62
     7
370
    25
100
AcDbCircle
 10
6147.0943917314
 20
4481.1682692308
 30
0.0
 40
4.400000000000546
100
AcDbArc
 50
90.0
 51
180.0
  0
ARC
  5
2B4
330
1F
100
AcDbEntity
  8
0
  6
Continuous
 62
     7
370
    25
100
AcDbCircle
 10
7288.2943917314
 20
4481.1682692308
 30
0.0
 40
4.400000000000546
100
AcDbArc
 50
0.0
 51
90.0
  0
LINE
  5
2B5
330
1F
100
AcDbEntity
  8
0
  6
Continuous
 62
     7
370
    25
100
AcDbLine
 10
6142.6943917314
 20
4481.1682692308
 30
0.0
 11
6142.6943917314
 21
4381.1682692308
 31
0.0
  0
LINE
  5
2B6
330
1F
100
AcDbEntity
  8
0
  6
Continuous
 62
     7
370
    25
100
AcDbLine
 10
7292.6943917314
 20
4381.1682692308
 30
0.0
 11
7292.6943917314
 21
4481.1682692308
 31
0.0
  0
ARC
  5
2B7
330
1F
100
AcDbEntity
  8
0
  6
Continuous
 62
     7
370
    25
100
AcDbCircle
 10
6147.0943917314
 20
4381.1682692308
 30
0.0
 40
4.400000000000546
100
AcDbArc
 50
180.0
 51
270.0
  0
ARC
  5
2B8
330
1F
100
AcDbEntity
  8
0
  6
Continuous
 62
     7
370
    25
100
AcDbCircle
 10
7288.2943917314
 20
4381.1682692308
 30
0.0
 40
4.400000000000546
100
AcDbArc
 50
270.0
 51
0.0
  0
LINE
  5
2B9
330
1F
100
AcDbEntity
  8
0
  6
Continuous
 62
     7
370
    25
100
AcDbLine
 10
6147.0943917314
 20
4376.7682692308
 30
0.0
 11
7288.2943917314
 21
4376.7682692308
 31
0.0
  0
ARC
  5
2BA
330
1F
100
AcDbEntity
  8
0
  6
Continuous
 62
     7
370
    25
100
AcDbCircle
 10
6717.6943917314
 20
4431.1682692308
 30
0.0
 40
18.15000000000055
100
AcDbArc
 50
90.0
 51
176.8328746966
  0
ARC
  5
2BB
330
1F
100
AcDbEntity
  8
0
  6
Continuous
 62
     7
370
    25
100
AcDbCircle
 10
6717.6943917314
 20
4431.1682692308
 30
0.0
 40
18.15000000000055
100
AcDbArc
 50
3.1671253034
 51
90.0
  0
ARC
  5
2BC
330
1F
100
AcDbEntity
  8
0
  6
Continuous
 62
     7
370
    25
100
AcDbCircle
 10
6717.6943917314
 20
4431.1682692308
 30
0.0
 40
20.05000000000015
100
AcDbArc
 50
3.1671253034
 51
176.8328746966
  0
ARC
  5
2BD
330
1F
100
AcDbEntity
  8
0
  6
Continuous
 62
     7
370
    25
100
AcDbCircle
 10
6699.6220371532
 20
4432.1682692308
 30
0.0
 40
0.0500000000002302
100
AcDbArc
 50
176.8328746973
 51
270.0
  0
ARC
  5
2BE
330
1F
100
AcDbEntity
  8
0
  6
Continuous
 62
     7
370
    25
100
AcDbCircle
 10
6699.6220371532
 20
4432.1682692308
 30
0.0
 40
1.950000000000728
100
AcDbArc
 50
176.8328746967
 51
270.0
  0
ARC
  5
2BF
330
1F
100
AcDbEntity
  8
0
  6
Continuous
 62
     7
370
    25
100
AcDbCircle
 10
6735.7667463096
 20
4432.1682692308
 30
0.0
 40
0.0500000000002302
100
AcDbArc
 50
270.0
 51
3.1671253027
  0
ARC
  5
2C0
330
1F
100
AcDbEntity
  8
0
  6
Continuous
 62
     7
370
    25
100
AcDbCircle
 10
6735.7667463096
 20
4432.1682692308
 30
0.0
 40
1.950000000000728
100
AcDbArc
 50
270.0
 51
3.1671253033
  0
LINE
  5
2C1
330
1F
100
AcDbEntity
  8
0
  6
Continuous
 62
     7
370
    25
100
AcDbLine
 10
6699.6220371532
 20
4430.2182692308
 30
0.0
 11
6699.7943917314
 21
4430.2182692308
 31
0.0
  0
LINE
  5
2C2
330
1F
100
AcDbEntity
  8
0
  6
Continuous
 62
     7
370
    25
100
AcDbLine
 10
6703.9943917314
 20
4430.2182692308
 30
0.0
 11
6704.1220371532
 21
4430.2182692308
 31
0.0
  0
LINE
  5
2C3
330
1F
100
AcDbEntity
  8
0
  6
Continuous
 62
     7
370
    25
100
AcDbLine
 10
6704.1220371532
 20
4432.1182692308
 30
0.0
 11
6703.9943917314
 21
4432.1182692308
 31
0.0
  0
LINE
  5
2C4
330
1F
100
AcDbEntity
  8
0
  6
Continuous
 62
     7
370
    25
100
AcDbLine
 10
6699.7943917314
 20
4432.1182692308
 30
0.0
 11
6699.6220371532
 21
4432.1182692308
 31
0.0
  0
LINE
  5
2C5
330
1F
100
AcDbEntity
  8
0
  6
Continuous
 62
     7
370
    25
100
AcDbLine
 10
6731.2667463096
 20
4430.2182692308
 30
0.0
 11
6731.3937105028
 21
4430.2182692308
 31
0.0
  0
LINE
  5
2C6
330
1F
100
AcDbEntity
  8
0
  6
Continuous
 62
     7
370
    25
100
AcDbLine
 10
6735.5937105028
 20
4430.2182692308
 30
0.0
 11
6735.7667463096
 21
4430.2182692308
 31
0.0
  0
LINE
  5
2C7
330
1F
100
AcDbEntity
  8
0
  6
Continuous
 62
     7
370
    25
100
AcDbLine
 10
6735.7667463096
 20
4432.1182692308
 30
0.0
 11
6735.5937105028
 21
4432.1182692308
 31
0.0
  0
LINE
  5
2C8
330
1F
100
AcDbEntity
  8
0
  6
Continuous
 62
     7
370
    25
100
AcDbLine
 10
6731.3937105028
 20
4432.1182692308
 30
0.0
 11
6731.2667463096
 21
4432.1182692308
 31
0.0
  0
LINE
  5
2C9
330
1F
100
AcDbEntity
  8
0
  6
Continuous
 62
     7
370
    25
100
AcDbLine
 10
6700.0277233232
 20
4440.7546568381
 30
0.0
 11
6700.0846310106
 21
4440.7546568381
 31
0.0
  0
LINE
  5
2CA
330
1F
100
AcDbEntity
  8
0
  6
Continuous
 62
     7
370
    25
100
AcDbLine
 10
6700.1985730125
 20
4421.5818816235
 30
0.0
 11
6700.0277233232
 21
4421.5818816235
 31
0.0
  0
LINE
  5
2CB
330
1F
100
AcDbEntity
  8
0
  6
Continuous
 62
     7
370
    25
100
AcDbLine
 10
6115.3943917314
 20
4503.8682692308
 30
0.0
 11
7319.9943917314
 21
4503.8682692308
 31
0.0
  0
LINE
  5
2CC
330
1F
100
AcDbEntity
  8
0
  6
Continuous
 62
     7
370
    25
100
AcDbLine
 10
7319.9943917314
 20
4503.8682692308
 30
0.0
 11
7319.9943917314
 21
4502.3682692308
 31
0.0
  0
LINE
  5
2CD
330
1F
100
AcDbEntity
  8
0
  6
Continuous
 62
     7
370
    25
100
AcDbLine
 10
6115.3943917314
 20
4502.3682692308
 30
0.0
 11
7319.9943917314
 21
4502.3682692308
 31
0.0
  0
LINE
  5
2CE
330
1F
100
AcDbEntity
  8
0
  6
Continuous
 62
     7
370
    25
100
AcDbLine
 10
6115.3943917314
 20
4503.8682692308
 30
0.0
 11
6115.3943917314
 21
4502.3682692308
 31
0.0
  0
LINE
  5
2CF
330
1F
100
AcDbEntity
  8
0
  6
Continuous
 62
     7
370
    25
100
AcDbLine
 10
7288.2943917314
 20
4482.1682692308
 30
0.0
 11
6147.0943917314
 21
4482.1682692308
 31
0.0
  0
ARC
  5
2D0
330
1F
100
AcDbEntity
  8
0
  6
Continuous
 62
     7
370
    25
100
AcDbCircle
 10
6147.0943917314
 20
4481.1682692308
 30
0.0
 40
1.0
100
AcDbArc
 50
90.0
 51
180.0
  0
ARC
  5
2D1
330
1F
100
AcDbEntity
  8
0
  6
Continuous
 62
     7
370
    25
100
AcDbCircle
 10
7288.2943917314
 20
4481.1682692308
 30
0.0
 40
1.0
100
AcDbArc
 50
0.0
 51
90.0
  0
LINE
  5
2D2
330
1F
100
AcDbEntity
  8
0
  6
Continuous
 62
     7
370
    25
100
AcDbLine
 10
6146.0943917314
 20
4381.1682692308
 30
0.0
 11
6146.0943917314
 21
4481.1682692308
 31
0.0
  0
LINE
  5
2D3
330
1F
100
AcDbEntity
  8
0
  6
Continuous
 62
     7
370
    25
100
AcDbLine
 10
7289.2943917314
 20
4481.1682692308
 30
0.0
 11
7289.2943917314
 21
4381.1682692308
 31
0.0
  0
ARC
  5
2D4
330
1F
100
AcDbEntity
  8
0
  6
Continuous
 62
     7
370
    25
100
AcDbCircle
 10
6147.0943917314
 20
4381.1682692308
 30
0.0
 40
1.0
100
AcDbArc
 50
180.0
 51
270.0
  0
ARC
  5
2D5
330
1F
100
AcDbEntity
  8
0
  6
Continuous
 62
     7
370
    25
100
AcDbCircle
 10
7288.2943917314
 20
4381.1682692308
 30
0.0
 40
1.0
100
AcDbArc
 50
270.0
 51
0.0
  0
LINE
  5
2D6
330
1F
100
AcDbEntity
  8
0
  6
Continuous
 62
     7
370
    25
100
AcDbLine
 10
7288.2943917314
 20
4380.1682692308
 30
0.0
 11
6147.0943917314
 21
4380.1682692308
 31
0.0
  0
CIRCLE
  5
2D7
330
1F
100
AcDbEntity
  8
0
  6
Continuous
 62
     7
370
    25
100
AcDbCircle
 10
6717.6943917314
 20
4431.1682692308
 30
0.0
 40
40.0
  0
CIRCLE
  5
2D8
330
1F
100
AcDbEntity
  8
0
  6
Continuous
 62
     7
370
    25
100
AcDbCircle
 10
6717.6943917314
 20
4431.1682692308
 30
0.0
 40
35.2010872731571
  0
LINE
  5
2D9
330
1F
100
AcDbEntity
  8
0
  6
Continuous
 62
     7
370
    25
100
AcDbLine
 10
6115.3943917314
 20
4359.9682692308
 30
0.0
 11
7319.9943917314
 21
4359.9682692308
 31
0.0
  0
CIRCLE
  5
2DA
330
1F
100
AcDbEntity
  8
0
  6
Continuous
 62
     7
370
    25
100
AcDbCircle
 10
7269.9943917314
 20
4490.6482151163
 30
0.0
 40
4.25
  0
CIRCLE
  5
2DB
330
1F
100
AcDbEntity
  8
0
  6
Continuous
 62
     7
370
    25
100
AcDbCircle
 10
6165.3943917314
 20
4490.6482151163
 30
0.0
 40
4.25
  0
LINE
  5
2DC
330
1F
100
AcDbEntity
  8
0
  6
Continuous
 62
     7
370
    25
100
AcDbLine
 10
7319.9943917314
 20
4359.9682692308
 30
0.0
 11
7319.9943917314
 21
4502.3682692308
 31
0.0
  0
LINE
  5
2DD
330
1F
100
AcDbEntity
  8
0
  6
Continuous
 62
     7
370
    25
100
AcDbLine
 10
6115.3943917314
 20
4502.3682692308
 30
0.0
 11
6115.3943917314
 21
4359.9682692308
 31
0.0
  0
LINE
  5
2DE
330
1F
100
AcDbEntity
  8
0
  6
Continuous
 62
     7
370
    25
100
AcDbLine
 10
7259.9943917314
 20
4357.1877857794
 30
0.0
 11
7279.9943917314
 21
4357.1877857794
 31
0.0
  0
LINE
  5
2DF
330
1F
100
AcDbEntity
  8
0
  6
Continuous
 62
     7
370
    25
100
AcDbLine
 10
7279.9943917314
 20
4359.9682692308
 30
0.0
 11
7279.9943917314
 21
4357.1877857794
 31
0.0
  0
LINE
  5
2E0
330
1F
100
AcDbEntity
  8
0
  6
Continuous
 62
     7
370
    25
100
AcDbLine
 10
7259.9943917314
 20
4359.9682692308
 30
0.0
 11
7259.9943917314
 21
4357.1877857794
 31
0.0
  0
LINE
  5
2E1
330
1F
100
AcDbEntity
  8
0
  6
Continuous
 62
     7
370
    25
100
AcDbLine
 10
6175.3943917314
 20
4357.1877857794
 30
0.0
 11
6155.3943917314
 21
4357.1877857794
 31
0.0
  0
LINE
  5
2E2
330
1F
100
AcDbEntity
  8
0
  6
Continuous
 62
     7
370
    25
100
AcDbLine
 10
6155.3943917314
 20
4359.9682692308
 30
0.0
 11
6155.3943917314
 21
4357.1877857794
 31
0.0
  0
LINE
  5
2E3
330
1F
100
AcDbEntity
  8
0
  6
Continuous
 62
     7
370
    25
100
AcDbLine
 10
6175.3943917314
 20
4359.9682692308
 30
0.0
 11
6175.3943917314
 21
4357.1877857794
 31
0.0
  0
LINE
  5
2E4
330
1F
100
AcDbEntity
  8
0
  6
Continuous
 62
     7
370
    25
100
AcDbLine
 10
6173.8943917314
 20
4339.2607919427
 30
0.0
 11
6165.3943917314
 21
4334.3533146545
 31
0.0
  0
LINE
  5
2E5
330
1F
100
AcDbEntity
  8
0
  6
Continuous
 62
     7
370
    25
100
AcDbLine
 10
6165.3943917314
 20
4334.3533146545
 30
0.0
 11
6156.8943917314
 21
4339.2607919427
 31
0.0
  0
LINE
  5
2E6
330
1F
100
AcDbEntity
  8
0
  6
Continuous
 62
     7
370
    25
100
AcDbLine
 10
6156.8943917314
 20
4339.2607919427
 30
0.0
 11
6156.8943917314
 21
4349.0757465189
 31
0.0
  0
LINE
  5
2E7
330
1F
100
AcDbEntity
  8
0
  6
Continuous
 62
     7
370
    25
100
AcDbLine
 10
6165.3943917314
 20
4353.983223807
 30
0.0
 11
6173.8943917314
 21
4349.0757465189
 31
0.0
  0
LINE
  5
2E8
330
1F
100
AcDbEntity
  8
0
  6
Continuous
 62
     7
370
    25
100
AcDbLine
 10
6173.8943917314
 20
4349.0757465189
 30
0.0
 11
6173.8943917314
 21
4339.2607919427
 31
0.0
  0
LINE
  5
2E9
330
1F
100
AcDbEntity
  8
0
  6
Continuous
 62
     7
370
    25
100
AcDbLine
 10
6156.8943917314
 20
4349.0757465189
 30
0.0
 11
6165.3943917314
 21
4353.983223807
 31
0.0
  0
LINE
  5
2EA
330
1F
100
AcDbEntity
  8
0
  6
Continuous
 62
     7
370
    25
100
AcDbLine
 10
7278.4943917314
 20
4339.2607919427
 30
0.0
 11
7278.4943917314
 21
4349.0757465189
 31
0.0
  0
LINE
  5
2EB
330
1F
100
AcDbEntity
  8
0
  6
Continuous
 62
     7
370
    25
100
AcDbLine
 10
7269.9943917314
 20
4334.3533146545
 30
0.0
 11
7278.4943917314
 21
4339.2607919427
 31
0.0
  0
LINE
  5
2EC
330
1F
100
AcDbEntity
  8
0
  6
Continuous
 62
     7
370
    25
100
AcDbLine
 10
7261.4943917314
 20
4339.2607919427
 30
0.0
 11
7269.9943917314
 21
4334.3533146545
 31
0.0
  0
LINE
  5
2ED
330
1F
100
AcDbEntity
  8
0
  6
Continuous
 62
     7
370
    25
100
AcDbLine
 10
7261.4943917314
 20
4349.0757465189
 30
0.0
 11
7261.4943917314
 21
4339.2607919427
 31
0.0
  0
LINE
  5
2EE
330
1F
100
AcDbEntity
  8
0
  6
Continuous
 62
     7
370
    25
100
AcDbLine
 10
7278.4943917314
 20
4349.0757465189
 30
0.0
 11
7269.9943917314
 21
4353.983223807
 31
0.0
  0
LINE
  5
2EF
330
1F
100
AcDbEntity
  8
0
  6
Continuous
 62
     7
370
    25
100
AcDbLine
 10
7269.9943917314
 20
4353.983223807
 30
0.0
 11
7261.4943917314
 21
4349.0757465189
 31
0.0
  0
LINE
  5
2F0
330
1F
100
AcDbEntity
  8
0
  6
Continuous
 62
     7
370
    25
100
AcDbLine
 10
6175.3943917314
 20
4356.526477218
 30
0.0
 11
6155.3943917314
 21
4356.526477218
 31
0.0
  0
LINE
  5
2F1
330
1F
100
AcDbEntity
  8
0
  6
Continuous
 62
     7
370
    25
100
AcDbLine
 10
6155.3943917314
 20
4357.1877857794
 30
0.0
 11
6155.3943917314
 21
4356.526477218
 31
0.0
  0
LINE
  5
2F2
330
1F
100
AcDbEntity
  8
0
  6
Continuous
 62
     7
370
    25
100
AcDbLine
 10
6175.3943917314
 20
4357.1877857794
 30
0.0
 11
6175.3943917314
 21
4356.526477218
 31
0.0
  0
LINE
  5
2F3
330
1F
100
AcDbEntity
  8
0
  6
Continuous
 62
     7
370
    25
100
AcDbLine
 10
7259.9943917314
 20
4356.526477218
 30
0.0
 11
7279.9943917314
 21
4356.526477218
 31
0.0
  0
LINE
  5
2F4
330
1F
100
AcDbEntity
  8
0
  6
Continuous
 62
     7
370
    25
100
AcDbLine
 10
7279.9943917314
 20
4357.1877857794
 30
0.0
 11
7279.9943917314
 21
4356.526477218
 31
0.0
  0
LINE
  5
2F5
330
1F
100
AcDbEntity
  8
0
  6
Continuous
 62
     7
370
    25
100
AcDbLine
 10
7259.9943917314
 20
4357.1877857794
 30
0.0
 11
7259.9943917314
 21
4356.526477218
 31
0.0
  0
LINE
  5
2F6
330
1F
100
AcDbEntity
  8
0
  6
Continuous
 62
     7
370
    25
100
AcDbLine
 10
7272.0263688969
 20
4335.526477218
 30
0.0
 11
7279.9943917314
 21
4335.526477218
 31
0.0
  0
LINE
  5
2F7
330
1F
100
AcDbEntity
  8
0
  6
Continuous
 62
     7
370
    25
100
AcDbLine
 10
7259.9943917314
 20
4335.526477218
 30
0.0
 11
7267.9624145659
 21
4335.526477218
 31
0.0
  0
LINE
  5
2F8
330
1F
100
AcDbEntity
  8
0
  6
Continuous
 62
     7
370
    25
100
AcDbLine
 10
7279.9943917314
 20
4356.526477218
 30
0.0
 11
7279.9943917314
 21
4335.526477218
 31
0.0
  0
LINE
  5
2F9
330
1F
100
AcDbEntity
  8
0
  6
Continuous
 62
     7
370
    25
100
AcDbLine
 10
7259.9943917314
 20
4356.526477218
 30
0.0
 11
7259.9943917314
 21
4335.526477218
 31
0.0
  0
LINE
  5
2FA
330
1F
100
AcDbEntity
  8
0
  6
Continuous
 62
     7
370
    25
100
AcDbLine
 10
6175.3943917314
 20
4335.526477218
 30
0.0
 11
6167.4263688969
 21
4335.526477218
 31
0.0
  0
LINE
  5
2FB
330
1F
100
AcDbEntity
  8
0
  6
Continuous
 62
     7
370
    25
100
AcDbLine
 10
6163.3624145659
 20
4335.526477218
 30
0.0
 11
6155.3943917314
 21
4335.526477218
 31
0.0
  0
LINE
  5
2FC
330
1F
100
AcDbEntity
  8
0
  6
Continuous
 62
     7
370
    25
100
AcDbLine
 10
6155.3943917314
 20
4356.526477218
 30
0.0
 11
6155.3943917314
 21
4335.526477218
 31
0.0
  0
LINE
  5
2FD
330
1F
100
AcDbEntity
  8
0
  6
Continuous
 62
     7
370
    25
100
AcDbLine
 10
6175.3943917314
 20
4356.526477218
 30
0.0
 11
6175.3943917314
 21
4335.526477218
 31
0.0
  0
LINE
  5
2FE
330
1F
100
AcDbEntity
  8
0
  6
Continuous
 62
     7
370
    25
100
AcDbLine
 10
6734.8937105028
 20
4431.1682692308
 30
0.0
 11
6734.8937105028
 21
4434.6682692308
 31
0.0
  0
ARC
  5
2FF
330
1F
100
AcDbEntity
  8
0
  6
Continuous
 62
     7
370
    25
100
AcDbCircle
 10
6734.8937105028
 20
4433.9682692308
 30
0.0
 40
0.6999999999998181
100
AcDbArc
 50
0.0
 51
90.0
  0
LINE
  5
300
330
1F
100
AcDbEntity
  8
0
  6
Continuous
 62
     7
370
    25
100
AcDbLine
 10
6735.5937105028
 20
4433.9682692308
 30
0.0
 11
6735.5937105028
 21
4431.1682692308
 31
0.0
  0
LINE
  5
301
330
1F
100
AcDbEntity
  8
0
  6
Continuous
 62
     7
370
    25
100
AcDbLine
 10
6734.8937105028
 20
4431.1682692308
 30
0.0
 11
6735.5937105028
 21
4431.1682692308
 31
0.0
  0
LINE
  5
302
330
1F
100
AcDbEntity
  8
0
  6
Continuous
 62
     7
370
    25
100
AcDbLine
 10
6703.2943917314
 20
4431.1682692308
 30
0.0
 11
6703.2943917314
 21
4434.6682692308
 31
0.0
  0
ARC
  5
303
330
1F
100
AcDbEntity
  8
0
  6
Continuous
 62
     7
370
    25
100
AcDbCircle
 10
6703.2943917314
 20
4433.9682692308
 30
0.0
 40
0.6999999999998181
100
AcDbArc
 50
0.0
 51
90.0
  0
LINE
  5
304
330
1F
100
AcDbEntity
  8
0
  6
Continuous
 62
     7
370
    25
100
AcDbLine
 10
6703.9943917314
 20
4433.9682692308
 30
0.0
 11
6703.9943917314
 21
4431.1682692308
 31
0.0
  0
LINE
  5
305
330
1F
100
AcDbEntity
  8
0
  6
Continuous
 62
     7
370
    25
100
AcDbLine
 10
6703.9943917314
 20
4431.1682692308
 30
0.0
 11
6703.2943917314
 21
4431.1682692308
 31
0.0
  0
LINE
  5
306
330
1F
100
AcDbEntity
  8
0
  6
Continuous
 62
     7
370
    25
100
AcDbLine
 10
6732.0937105028
 20
4431.1682692308
 30
0.0
 11
6734.8937105028
 21
4431.1682692308
 31
0.0
  0
LINE
  5
307
330
1F
100
AcDbEntity
  8
0
  6
Continuous
 62
     7
370
    25
100
AcDbLine
 10
6732.0937105028
 20
4434.6682692308
 30
0.0
 11
6732.0937105028
 21
4431.1682692308
 31
0.0
  0
LINE
  5
308
330
1F
100
AcDbEntity
  8
0
  6
Continuous
 62
     7
370
    25
100
AcDbLine
 10
6732.0937105028
 20
4434.6682692308
 30
0.0
 11
6734.8937105028
 21
4434.6682692308
 31
0.0
  0
LINE
  5
309
330
1F
100
AcDbEntity
  8
0
  6
Continuous
 62
     7
370
    25
100
AcDbLine
 10
6700.4943917314
 20
4434.6682692308
 30
0.0
 11
6700.4943917314
 21
4431.1682692308
 31
0.0
  0
LINE
  5
30A
330
1F
100
AcDbEntity
  8
0
  6
Continuous
 62
     7
370
    25
100
AcDbLine
 10
6700.4943917314
 20
4431.1682692308
 30
0.0
 11
6699.7943917314
 21
4431.1682692308
 31
0.0
  0
LINE
  5
30B
330
1F
100
AcDbEntity
  8
0
  6
Continuous
 62
     7
370
    25
100
AcDbLine
 10
6699.7943917314
 20
4431.1682692308
 30
0.0
 11
6699.7943917314
 21
4433.9682692308
 31
0.0
  0
ARC
  5
30C
330
1F
100
AcDbEntity
  8
0
  6
Continuous
 62
     7
370
    25
100
AcDbCircle
 10
6700.4943917314
 20
4433.9682692308
 30
0.0
 40
0.6999999999998181
100
AcDbArc
 50
90.0
 51
180.0
  0
LINE
  5
30D
330
1F
100
AcDbEntity
  8
0
  6
Continuous
 62
     7
370
    25
100
AcDbLine
 10
6731.3937105028
 20
4431.1682692308
 30
0.0
 11
6731.3937105028
 21
4433.9682692308
 31
0.0
  0
ARC
  5
30E
330
1F
100
AcDbEntity
  8
0
  6
Continuous
 62
     7
370
    25
100
AcDbCircle
 10
6732.0937105028
 20
4433.9682692308
 30
0.0
 40
0.6999999999998181
100
AcDbArc
 50
90.0
 51
180.0
  0
LINE
  5
30F
330
1F
100
AcDbEntity
  8
0
  6
Continuous
 62
     7
370
    25
100
AcDbLine
 10
6732.0937105028
 20
4431.1682692308
 30
0.0
 11
6731.3937105028
 21
4431.1682692308
 31
0.0
  0
LINE
  5
310
330
1F
100
AcDbEntity
  8
0
  6
Continuous
 62
     7
370
    25
100
AcDbLine
 10
6700.4943917314
 20
4434.6682692308
 30
0.0
 11
6703.2943917314
 21
4434.6682692308
 31
0.0
  0
LINE
  5
311
330
1F
100
AcDbEntity
  8
0
  6
Continuous
 62
     7
370
    25
100
AcDbLine
 10
6700.4943917314
 20
4431.1682692308
 30
0.0
 11
6703.2943917314
 21
4431.1682692308
 31
0.0
  0
LINE
  5
312
330
1F
100
AcDbEntity
  8
0
  6
Continuous
 62
     7
370
    25
100
AcDbLine
 10
6700.4943917314
 20
4431.1682692308
 30
0.0
 11
6700.4943917314
 21
4427.6682692308
 31
0.0
  0
LINE
  5
313
330
1F
100
AcDbEntity
  8
0
  6
Continuous
 62
     7
370
    25
100
AcDbLine
 10
6703.2943917314
 20
4427.6682692308
 30
0.0
 11
6703.2943917314
 21
4431.1682692308
 31
0.0
  0
LINE
  5
314
330
1F
100
AcDbEntity
  8
0
  6
Continuous
 62
     7
370
    25
100
AcDbLine
 10
6703.2943917314
 20
4427.6682692308
 30
0.0
 11
6700.4943917314
 21
4427.6682692308
 31
0.0
  0
LINE
  5
315
330
1F
100
AcDbEntity
  8
0
  6
Continuous
 62
     7
370
    25
100
AcDbLine
 10
6734.8937105028
 20
4427.6682692308
 30
0.0
 11
6734.8937105028
 21
4431.1682692308
 31
0.0
  0
LINE
  5
316
330
1F
100
AcDbEntity
  8
0
  6
Continuous
 62
     7
370
    25
100
AcDbLine
 10
6735.5937105028
 20
4431.1682692308
 30
0.0
 11
6735.5937105028
 21
4428.3682692308
 31
0.0
  0
ARC
  5
317
330
1F
100
AcDbEntity
  8
0
  6
Continuous
 62
     7
370
    25
100
AcDbCircle
 10
6734.8937105028
 20
4428.3682692308
 30
0.0
 40
0.7000000000007276
100
AcDbArc
 50
270.0
 51
0.0
  0
LINE
  5
318
330
1F
100
AcDbEntity
  8
0
  6
Continuous
 62
     7
370
    25
100
AcDbLine
 10
6734.8937105028
 20
4427.6682692308
 30
0.0
 11
6732.0937105028
 21
4427.6682692308
 31
0.0
  0
LINE
  5
319
330
1F
100
AcDbEntity
  8
0
  6
Continuous
 62
     7
370
    25
100
AcDbLine
 10
6732.0937105028
 20
4431.1682692308
 30
0.0
 11
6732.0937105028
 21
4427.6682692308
 31
0.0
  0
ARC
  5
31A
330
1F
100
AcDbEntity
  8
0
  6
Continuous
 62
     7
370
    25
100
AcDbCircle
 10
6700.4943917314
 20
4428.3682692308
 30
0.0
 40
0.7000000000007276
100
AcDbArc
 50
180.0
 51
270.0
  0
LINE
  5
31B
330
1F
100
AcDbEntity
  8
0
  6
Continuous
 62
     7
370
    25
100
AcDbLine
 10
6699.7943917314
 20
4428.3682692308
 30
0.0
 11
6699.7943917314
 21
4431.1682692308
 31
0.0
  0
LINE
  5
31C
330
1F
100
AcDbEntity
  8
0
  6
Continuous
 62
     7
370
    25
100
AcDbLine
 10
6703.9943917314
 20
4431.1682692308
 30
0.0
 11
6703.9943917314
 21
4428.3682692308
 31
0.0
  0
ARC
  5
31D
330
1F
100
AcDbEntity
  8
0
  6
Continuous
 62
     7
370
    25
100
AcDbCircle
 10
6703.2943917314
 20
4428.3682692308
 30
0.0
 40
0.7000000000007276
100
AcDbArc
 50
270.0
 51
0.0
  0
ARC
  5
31E
330
1F
100
AcDbEntity
  8
0
  6
Continuous
 62
     7
370
    25
100
AcDbCircle
 10
6732.0937105028
 20
4428.3682692308
 30
0.0
 40
0.7000000000007276
100
AcDbArc
 50
180.0
 51
270.0
  0
LINE
  5
31F
330
1F
100
AcDbEntity
  8
0
  6
Continuous
 62
     7
370
    25
100
AcDbLine
 10
6731.3937105028
 20
4428.3682692308
 30
0.0
 11
6731.3937105028
 21
4431.1682692308
 31
0.0
  0
LINE
  5
320
330
1F
100
AcDbEntity
  8
0
  6
Continuous
 62
     7
370
    25
100
AcDbLine
 10
6704.1220371532
 20
4432.1182692308
 30
0.0
 11
6704.1220371532
 21
4430.2182692308
 31
0.0
  0
LINE
  5
321
330
1F
100
AcDbEntity
  8
0
  6
Continuous
 62
     7
370
    25
100
AcDbLine
 10
6731.2667463096
 20
4432.1182692308
 30
0.0
 11
6731.2667463096
 21
4430.2182692308
 31
0.0
  0
LINE
  5
322
330
1F
100
AcDbEntity
  8
0
  6
Continuous
 62
     7
370
    25
100
AcDbLine
 10
6699.7943917314
 20
4428.3682692308
 30
0.0
 11
6699.0943917314
 21
4428.3682692308
 31
0.0
  0
LINE
  5
323
330
1F
100
AcDbEntity
  8
0
  6
Continuous
 62
     7
370
    25
100
AcDbLine
 10
6735.5937105028
 20
4428.3682692308
 30
0.0
 11
6736.2937105028
 21
4428.3682692308
 31
0.0
  0
LINE
  5
324
330
1F
100
AcDbEntity
  8
0
  6
Continuous
 62
     7
370
    25
100
AcDbLine
 10
6734.8937105028
 20
4427.6682692308
 30
0.0
 11
6734.8937105028
 21
4426.9682692308
 31
0.0
  0
LINE
  5
325
330
1F
100
AcDbEntity
  8
0
  6
Continuous
 62
     7
370
    25
100
AcDbLine
 10
6734.8937105028
 20
4426.9682692308
 30
0.0
 11
6733.4213755317
 21
4426.9682692308
 31
0.0
  0
ARC
  5
326
330
1F
100
AcDbEntity
  8
0
  6
Continuous
 62
     7
370
    25
100
AcDbCircle
 10
6728.6337671819
 20
4428.4162136357
 30
0.0
 40
5.001773356598558
100
AcDbArc
 50
343.1728014174
 51
351.3999709408
  0
LINE
  5
327
330
1F
100
AcDbEntity
  8
0
  6
Continuous
 62
     7
370
    25
100
AcDbLine
 10
6700.4943917314
 20
4434.6682692308
 30
0.0
 11
6700.4943917314
 21
4435.3682692308
 31
0.0
  0
LINE
  5
328
330
1F
100
AcDbEntity
  8
0
  6
Continuous
 62
     7
370
    25
100
AcDbLine
 10
6700.4943917314
 20
4435.3682692308
 30
0.0
 11
6701.5444449782
 21
4435.3682692308
 31
0.0
  0
ARC
  5
329
330
1F
100
AcDbEntity
  8
0
  6
Continuous
 62
     7
370
    25
100
AcDbCircle
 10
6716.2198539335
 20
4432.3794848125
 30
0.0
 40
14.97666385767484
100
AcDbArc
 50
168.4886082319
 51
171.2094187134
  0
LINE
  5
32A
330
1F
100
AcDbEntity
  8
0
  6
Continuous
 62
     7
370
    25
100
AcDbLine
 10
6701.8075537901
 20
4426.9682692308
 30
0.0
 11
6700.4943917314
 21
4426.9682692308
 31
0.0
  0
LINE
  5
32B
330
1F
100
AcDbEntity
  8
0
  6
Continuous
 62
     7
370
    25
100
AcDbLine
 10
6700.4943917314
 20
4427.6682692308
 30
0.0
 11
6700.4943917314
 21
4426.9682692308
 31
0.0
  0
ARC
  5
32C
330
1F
100
AcDbEntity
  8
0
  6
Continuous
 62
     7
370
    25
100
AcDbCircle
 10
6716.0893961864
 20
4431.0948431366
 30
0.0
 40
14.86605645195043
100
AcDbArc
 50
193.326304233
 51
196.1160409621
  0
LINE
  5
32D
330
1F
100
AcDbEntity
  8
0
  6
Continuous
 62
     7
370
    25
100
AcDbLine
 10
6733.4213755317
 20
4435.3682692308
 30
0.0
 11
6734.8937105028
 21
4435.3682692308
 31
0.0
  0
LINE
  5
32E
330
1F
100
AcDbEntity
  8
0
  6
Continuous
 62
     7
370
    25
100
AcDbLine
 10
6734.8937105028
 20
4434.6682692308
 30
0.0
 11
6734.8937105028
 21
4435.3682692308
 31
0.0
  0
ARC
  5
32F
330
1F
100
AcDbEntity
  8
0
  6
Continuous
 62
     7
370
    25
100
AcDbCircle
 10
6727.3127487468
 20
4433.6222906233
 30
0.0
 40
6.353248184617847
100
AcDbArc
 50
9.476137532
 51
15.9510901099
  0
ARC
  5
330
330
1F
100
AcDbEntity
  8
0
  6
Continuous
 62
     7
370
    25
100
AcDbCircle
 10
6700.4943917314
 20
4428.3682692308
 30
0.0
 40
1.400000000000546
100
AcDbArc
 50
180.0
 51
270.0
  0
ARC
  5
331
330
1F
100
AcDbEntity
  8
0
  6
Continuous
 62
     7
370
    25
100
AcDbCircle
 10
6734.8937105028
 20
4428.3682692308
 30
0.0
 40
1.400000000000546
100
AcDbArc
 50
270.0
 51
0.0
  0
ARC
  5
332
330
1F
100
AcDbEntity
  8
0
  6
Continuous
 62
     7
370
    25
100
AcDbCircle
 10
6717.6943917314
 20
4431.1682692308
 30
0.0
 40
19.95000000000021
100
AcDbArc
 50
270.0
 51
1.3083677854
  0
ARC
  5
333
330
1F
100
AcDbEntity
  8
0
  6
Continuous
 62
     7
370
    25
100
AcDbCircle
 10
6717.6943917314
 20
4431.1682692308
 30
0.0
 40
19.95000000000033
100
AcDbArc
 50
178.6916322146
 51
270.0
  0
ARC
  5
334
330
1F
100
AcDbEntity
  8
0
  6
Continuous
 62
     7
370
    25
100
AcDbCircle
 10
6711.9457528053
 20
4444.1123374572
 30
0.0
 40
2.114962488156814
100
AcDbArc
 50
113.9466658893
 51
122.6187463668
  0
ARC
  5
335
330
1F
100
AcDbEntity
  8
0
  6
Continuous
 62
     7
370
    25
100
AcDbCircle
 10
6711.9457528053
 20
4418.2242010043
 30
0.0
 40
2.11496248815748
100
AcDbArc
 50
236.8243605215
 51
246.0533341107
  0
ARC
  5
336
330
1F
100
AcDbEntity
  8
0
  6
Continuous
 62
     7
370
    25
100
AcDbCircle
 10
6718.0846956076
 20
4431.7788503694
 30
0.0
 40
16.97312689633258
100
AcDbArc
 50
196.4646299597
 51
244.5405854637
  0
ARC
  5
337
330
1F
100
AcDbEntity
  8
0
  6
Continuous
 62
     7
370
    25
100
AcDbCircle
 10
6716.7697687532
 20
4431.3088164556
 30
0.0
 40
15.75720917196652
100
AcDbArc
 50
112.2407026115
 51
165.0708087807
  0
ARC
  5
338
330
1F
100
AcDbEntity
  8
0
  6
Continuous
 62
     7
370
    25
100
AcDbCircle
 10
6717.6943917314
 20
4431.1682692308
 30
0.0
 40
16.27814545502542
100
AcDbArc
 50
14.95229104
 51
113.9466658893
  0
ARC
  5
339
330
1F
100
AcDbEntity
  8
0
  6
Continuous
 62
     7
370
    25
100
AcDbCircle
 10
6717.6943917314
 20
4431.1682692308
 30
0.0
 40
16.27814545502542
100
AcDbArc
 50
246.0533341107
 51
345.04770896
  0
LINE
  5
33A
330
1F
100
AcDbEntity
  8
0
  6
Continuous
 62
     7
370
    25
100
AcDbLine
 10
6701.544444978
 20
4435.3682692301
 30
0.0
 11
6702.821478586
 21
4435.3682692308
 31
0.0
  0
ARC
  5
33B
330
1F
100
AcDbEntity
  8
0
  6
Continuous
 62
     7
370
    25
100
AcDbCircle
 10
6703.4351962108
 20
4435.2731431033
 30
0.0
 40
0.6210461360250207
100
AcDbArc
 50
171.1892765272
 51
256.8958738101
  0
ARC
  5
33C
330
1F
100
AcDbEntity
  8
0
  6
Continuous
 62
     7
370
    25
100
AcDbCircle
 10
6703.4351962108
 20
4427.0633953583
 30
0.0
 40
0.6210461360245356
100
AcDbArc
 50
103.1041261897
 51
188.8107234729
  0
LINE
  5
33D
330
1F
100
AcDbEntity
  8
0
  6
Continuous
 62
     7
370
    25
100
AcDbLine
 10
6702.821478586
 20
4426.9682692308
 30
0.0
 11
6701.8075537901
 21
4426.9682692308
 31
0.0
  0
LINE
  5
33E
330
1F
100
AcDbEntity
  8
0
  6
Continuous
 62
     7
370
    25
100
AcDbLine
 10
6704.221478586
 20
4433.9682692308
 30
0.0
 11
6704.221478586
 21
4428.3682692308
 31
0.0
  0
ARC
  5
33F
330
1F
100
AcDbEntity
  8
0
  6
Continuous
 62
     7
370
    25
100
AcDbCircle
 10
6702.821478586
 20
4433.9682692308
 30
0.0
 40
1.400000000000546
100
AcDbArc
 50
0.0
 51
90.0
  0
ELLIPSE
  5
340
330
1F
100
AcDbEntity
  8
0
  6
Continuous
 62
     7
370
    25
100
AcDbEllipse
 10
6715.4425751638
 20
4444.1123374572
 30
0.0
 11
7.431956459166031
 21
0.0
 31
0.0
210
0.0
220
0.0
230
1.0
 40
0.9998720779
 41
3.118775151141916
 42
4.187842385738613
  0
ELLIPSE
  5
341
330
1F
100
AcDbEntity
  8
0
  6
Continuous
 62
     7
370
    25
100
AcDbEllipse
 10
6707.9519885366
 20
4431.1682692308
 30
0.0
 11
7.524669661681401
 21
0.0
 31
0.0
210
0.0
220
0.0
230
1.0
 40
0.9998720779
 41
5.236935575030834
 42
7.329435039328414
  0
ELLIPSE
  5
342
330
1F
100
AcDbEntity
  8
0
  6
Continuous
 62
     7
370
    25
100
AcDbEllipse
 10
6715.4425751638
 20
4418.2242010043
 30
0.0
 11
7.431956459166031
 21
0.0
 31
0.0
210
0.0
220
0.0
230
1.0
 40
0.9998720779
 41
2.095342921441048
 42
3.159634691503549
  0
ARC
  5
343
330
1F
100
AcDbEntity
  8
0
  6
Continuous
 62
     7
370
    25
100
AcDbCircle
 10
6702.821478586
 20
4428.3682692308
 30
0.0
 40
1.400000000000546
100
AcDbArc
 50
270.0
 51
0.0
  0
LINE
  5
344
330
1F
100
AcDbEntity
  8
0
  6
Continuous
 62
     7
370
    25
100
AcDbLine
 10
6704.221478586
 20
4433.9682692308
 30
0.0
 11
6703.9943917314
 21
4433.9682692308
 31
0.0
  0
LINE
  5
345
330
1F
100
AcDbEntity
  8
0
  6
Continuous
 62
     7
370
    25
100
AcDbLine
 10
6704.221478586
 20
4428.3682692308
 30
0.0
 11
6703.9943917314
 21
4428.3682692308
 31
0.0
  0
ARC
  5
346
330
1F
100
AcDbEntity
  8
0
  6
Continuous
 62
     7
370
    25
100
AcDbCircle
 10
6708.5155981148
 20
4439.2745261211
 30
0.0
 40
3.579462494999124
100
AcDbArc
 50
333.5544399289
 51
50.6354567783
  0
ARC
  5
347
330
1F
100
AcDbEntity
  8
0
  6
Continuous
 62
     7
370
    25
100
AcDbCircle
 10
6712.0662959792
 20
4444.1123952865
 30
0.0
 40
2.434420996736607
100
AcDbArc
 50
143.877510115
 51
238.2668902283
  0
ARC
  5
348
330
1F
100
AcDbEntity
  8
0
  6
Continuous
 62
     7
370
    25
100
AcDbCircle
 10
6708.5155981148
 20
4423.0620123405
 30
0.0
 40
3.579462494998743
100
AcDbArc
 50
309.3645432217
 51
26.4455600711
  0
ARC
  5
349
330
1F
100
AcDbEntity
  8
0
  6
Continuous
 62
     7
370
    25
100
AcDbCircle
 10
6712.066347028
 20
4418.2241331703
 30
0.0
 40
2.434456355961812
100
AcDbArc
 50
121.7340077699
 51
216.0920467523
  0
ARC
  5
34A
330
1F
100
AcDbEntity
  8
0
  6
Continuous
 62
     7
370
    25
100
AcDbCircle
 10
6704.5758639772
 20
4431.1682692308
 30
0.0
 40
12.52198860922792
100
AcDbArc
 50
299.7310219646
 51
60.2689780354
  0
CIRCLE
  5
34B
330
1F
100
AcDbEntity
  8
0
  6
Continuous
 62
     7
370
    25
100
AcDbCircle
 10
6717.6943917314
 20
4431.1682692308
 30
0.0
 40
20.09999999999945
  0
ARC
  5
34C
330
1F
100
AcDbEntity
  8
0
  6
Continuous
 62
     7
370
    25
100
AcDbCircle
 10
6717.6943917314
 20
4431.1682692308
 30
0.0
 40
25.55435605731859
100
AcDbArc
 50
4.3156322274
 51
85.6843677726
  0
ARC
  5
34D
330
1F
100
AcDbEntity
  8
0
  6
Continuous
 62
     7
370
    25
100
AcDbCircle
 10
6744.6943917314
 20
4431.1682692308
 30
0.0
 40
2.450000000002744
100
AcDbArc
 50
128.2893063632
 51
231.7106936368
  0
ARC
  5
34E
330
1F
100
AcDbEntity
  8
0
  6
Continuous
 62
     7
370
    25
100
AcDbCircle
 10
6717.6943917314
 20
4431.1682692308
 30
0.0
 40
25.55435605731768
100
AcDbArc
 50
274.3156322274
 51
355.6843677726
  0
ARC
  5
34F
330
1F
100
AcDbEntity
  8
0
  6
Continuous
 62
     7
370
    25
100
AcDbCircle
 10
6717.6943917314
 20
4404.1682692308
 30
0.0
 40
2.450000000001053
100
AcDbArc
 50
38.2893063631
 51
141.7106936368
  0
ARC
  5
350
330
1F
100
AcDbEntity
  8
0
  6
Continuous
 62
     7
370
    25
100
AcDbCircle
 10
6717.6943917314
 20
4431.1682692308
 30
0.0
 40
25.55435605731762
100
AcDbArc
 50
184.3156322274
 51
265.6843677726
  0
ARC
  5
351
330
1F
100
AcDbEntity
  8
0
  6
Continuous
 62
     7
370
    25
100
AcDbCircle
 10
6690.6943917314
 20
4431.1682692308
 30
0.0
 40
2.449999999999362
100
AcDbArc
 50
308.2893063631
 51
51.7106936369
  0
ARC
  5
352
330
1F
100
AcDbEntity
  8
0
  6
Continuous
 62
     7
370
    25
100
AcDbCircle
 10
6717.6943917314
 20
4431.1682692308
 30
0.0
 40
25.55435605731853
100
AcDbArc
 50
94.3156322274
 51
175.6843677726
  0
ARC
  5
353
330
1F
100
AcDbEntity
  8
0
  6
Continuous
 62
     7
370
    25
100
AcDbCircle
 10
6717.6943917314
 20
4458.1682692308
 30
0.0
 40
2.45000000000049
100
AcDbArc
 50
218.2893063631
 51
321.7106936369
  0
CIRCLE
  5
354
330
1F
100
AcDbEntity
  8
0
  6
Continuous
 62
     7
370
    25
100
AcDbCircle
 10
6717.6943917314
 20
4431.1682692308
 30
0.0
 40
34.89999999999964
  0
ARC
  5
355
330
1F
100
AcDbEntity
  8
0
  6
Continuous
 62
     7
370
    25
100
AcDbCircle
 10
6717.6943917314
 20
4404.1682692308
 30
0.0
 40
2.449999999999926
100
AcDbArc
 50
141.7106936369
 51
38.2893063631
  0
ARC
  5
356
330
1F
100
AcDbEntity
  8
0
  6
Continuous
 62
     7
370
    25
100
AcDbCircle
 10
6744.6943917314
 20
4431.1682692308
 30
0.0
 40
2.450000000001053
100
AcDbArc
 50
231.7106936369
 51
128.2893063631
  0
ARC
  5
357
330
1F
100
AcDbEntity
  8
0
  6
Continuous
 62
     7
370
    25
100
AcDbCircle
 10
6690.6943917314
 20
4431.1682692308
 30
0.0
 40
2.45000000000049
100
AcDbArc
 50
51.7106936369
 51
308.2893063631
  0
ARC
  5
358
330
1F
100
AcDbEntity
  8
0
  6
Continuous
 62
     7
370
    25
100
AcDbCircle
 10
6717.6943917314
 20
4458.1682692308
 30
0.0
 40
2.449999999999926
100
AcDbArc
 50
321.7106936369
 51
218.2893063631
  0
ELLIPSE
  5
359
330
1F
100
AcDbEntity
  8
0
  6
Continuous
 62
     7
370
    25
100
AcDbEllipse
 10
6649.1120032615
 20
4423.6156432288
 30
0.0
 11
198.0000000000009
 21
0.0
 31
0.0
210
0.0
220
0.0
230
1.0
 40
0.0261859216
 41
4.982746857089577
 42
4.983749892018665
  0
LINE
  5
35A
330
1F
100
AcDbEntity
  8
0
  6
Continuous
 62
     7
370
    25
100
AcDbLine
 10
6709.799865482
 20
4442.9305972309
 30
0.0
 11
6711.2132175437
 21
4444.3439492926
 31
0.0
  0
ARC
  5
35B
330
1F
100
AcDbEntity
  8
0
  6
Continuous
 62
     7
370
    25
100
AcDbCircle
 10
6709.6943917314
 20
4434.5114149813
 30
0.0
 40
8.02662371911963
100
AcDbArc
 50
0.0
 51
45.0
  0
LINE
  5
35C
330
1F
100
AcDbEntity
  8
0
  6
Continuous
 62
     7
370
    25
100
AcDbLine
 10
6717.7210154505
 20
4434.5114149813
 30
0.0
 11
6717.7210154505
 21
4427.8251234803
 31
0.0
  0
LINE
  5
35D
330
1F
100
AcDbEntity
  8
0
  6
Continuous
 62
     7
370
    25
100
AcDbLine
 10
6711.2132175437
 20
4444.3439492926
 30
0.0
 11
6715.3700717932
 21
4440.1870950431
 31
0.0
  0
ARC
  5
35E
330
1F
100
AcDbEntity
  8
0
  6
Continuous
 62
     7
370
    25
100
AcDbCircle
 10
6709.6943917314
 20
4427.8251234803
 30
0.0
 40
8.026623719119016
100
AcDbArc
 50
315.0
 51
0.0
  0
LINE
  5
35F
330
1F
100
AcDbEntity
  8
0
  6
Continuous
 62
     7
370
    25
100
AcDbLine
 10
6711.2132175437
 20
4417.9925891689
 30
0.0
 11
6709.799865482
 21
4419.4059412306
 31
0.0
  0
LINE
  5
360
330
1F
100
AcDbEntity
  8
0
  6
Continuous
 62
     7
370
    25
100
AcDbLine
 10
6715.3700717932
 20
4422.1494434184
 30
0.0
 11
6711.2132175437
 21
4417.9925891689
 31
0.0
  0
ARC
  5
361
330
1F
100
AcDbEntity
  8
0
  6
Continuous
 62
     7
370
    25
100
AcDbCircle
 10
6165.3943917314
 20
4491.1682692308
 30
0.0
 40
4.000000000000909
100
AcDbArc
 50
270.0
 51
25.5142085466
  0
ARC
  5
362
330
1F
100
AcDbEntity
  8
0
  6
Continuous
 62
     7
370
    25
100
AcDbCircle
 10
6165.3943917314
 20
4491.1682692308
 30
0.0
 40
4.000000000000909
100
AcDbArc
 50
154.4857914583
 51
270.0
  0
CIRCLE
  5
363
330
1F
100
AcDbEntity
  8
0
  6
Continuous
 62
     7
370
    25
100
AcDbCircle
 10
7269.9943917314
 20
4344.1682692308
 30
0.0
 40
3.999999999999091
  0
CIRCLE
  5
364
330
1F
100
AcDbEntity
  8
0
  6
Continuous
 62
     7
370
    25
100
AcDbCircle
 10
7269.9943917314
 20
4344.1682692308
 30
0.0
 40
4.999999999999091
  0
ARC
  5
365
330
1F
100
AcDbEntity
  8
0
  6
Continuous
 62
     7
370
    25
100
AcDbCircle
 10
7269.9943917314
 20
4491.1682692308
 30
0.0
 40
4.000000000000909
100
AcDbArc
 50
270.0
 51
25.5142085417
  0
ARC
  5
366
330
1F
100
AcDbEntity
  8
0
  6
Continuous
 62
     7
370
    25
100
AcDbCircle
 10
7269.9943917314
 20
4491.1682692308
 30
0.0
 40
4.000000000000909
100
AcDbArc
 50
154.4857914534
 51
270.0
  0
LINE
  5
367
330
1F
100
AcDbEntity
  8
0
  6
Continuous
 62
     7
370
    25
100
AcDbLine
 10
7283.9943917314
 20
4506.1682692308
 30
0.0
 11
7233.9943917314
 21
4506.1682692308
 31
0.0
  0
LINE
  5
368
330
1F
100
AcDbEntity
  8
0
  6
Continuous
 62
     7
370
    25
100
AcDbLine
 10
7283.9943917314
 20
4503.8682692308
 30
0.0
 11
7283.9943917314
 21
4506.1682692308
 31
0.0
  0
LINE
  5
369
330
1F
100
AcDbEntity
  8
0
  6
Continuous
 62
     7
370
    25
100
AcDbLine
 10
7233.9943917314
 20
4506.1682692308
 30
0.0
 11
7233.9943917314
 21
4503.8682692308
 31
0.0
  0
CIRCLE
  5
36A
330
1F
100
AcDbEntity
  8
0
  6
Continuous
 62
     7
370
    25
100
AcDbCircle
 10
6165.3943917314
 20
4344.1682692308
 30
0.0
 40
4.000000000000909
  0
CIRCLE
  5
36B
330
1F
100
AcDbEntity
  8
0
  6
Continuous
 62
     7
370
    25
100
AcDbCircle
 10
6165.3943917314
 20
4344.1682692308
 30
0.0
 40
5.0
  0
LINE
  5
36C
330
1F
100
AcDbEntity
  8
0
  6
Continuous
 62
     7
370
    25
100
AcDbLine
 10
6151.3943917314
 20
4329.1682692308
 30
0.0
 11
6201.3943917314
 21
4329.1682692308
 31
0.0
  0
CIRCLE
  5
36D
330
1F
100
AcDbEntity
  8
0
  6
Continuous
 62
     7
370
    25
100
AcDbCircle
 10
6187.3943917314
 20
4344.1682692308
 30
0.0
 40
2.75
  0
LINE
  5
36E
330
1F
100
AcDbEntity
  8
0
  6
Continuous
 62
     7
370
    25
100
AcDbLine
 10
6201.3943917314
 20
4359.1682692308
 30
0.0
 11
6175.3943917314
 21
4359.1682692308
 31
0.0
  0
LINE
  5
36F
330
1F
100
AcDbEntity
  8
0
  6
Continuous
 62
     7
370
    25
100
AcDbLine
 10
6155.3943917314
 20
4359.1682692308
 30
0.0
 11
6151.3943917314
 21
4359.1682692308
 31
0.0
  0
LINE
  5
370
330
1F
100
AcDbEntity
  8
0
  6
Continuous
 62
     7
370
    25
100
AcDbLine
 10
6201.3943917314
 20
4329.1682692308
 30
0.0
 11
6201.3943917314
 21
4359.1682692308
 31
0.0
  0
LINE
  5
371
330
1F
100
AcDbEntity
  8
0
  6
Continuous
 62
     7
370
    25
100
AcDbLine
 10
6151.3943917314
 20
4359.1682692308
 30
0.0
 11
6151.3943917314
 21
4329.1682692308
 31
0.0
  0
LINE
  5
372
330
1F
100
AcDbEntity
  8
0
  6
Continuous
 62
     8
370
    25
100
AcDbLine
 10
7288.2943917314
 20
4482.1682692308
 30
0.0
 11
7288.2943917314
 21
4485.5682692308
 31
0.0
  0
LINE
  5
373
330
1F
100
AcDbEntity
  8
0
  6
Continuous
 62
     8
370
    25
100
AcDbLine
 10
6147.0943917314
 20
4482.1682692308
 30
0.0
 11
6147.0943917314
 21
4485.5682682469
 31
0.0
  0
LINE
  5
374
330
1F
100
AcDbEntity
  8
0
  6
Continuous
 62
     8
370
    25
100
AcDbLine
 10
6146.0943917314
 20
4481.1682692308
 30
0.0
 11
6142.6943917314
 21
4481.1682692308
 31
0.0
  0
LINE
  5
375
330
1F
100
AcDbEntity
  8
0
  6
Continuous
 62
     8
370
    25
100
AcDbLine
 10
7289.2943917314
 20
4481.1682692308
 30
0.0
 11
7292.6943917314
 21
4481.1682692308
 31
0.0
  0
LINE
  5
376
330
1F
100
AcDbEntity
  8
0
  6
Continuous
 62
     8
370
    25
100
AcDbLine
 10
6146.0943917314
 20
4381.1682692308
 30
0.0
 11
6142.6943917314
 21
4381.1682692308
 31
0.0
  0
LINE
  5
377
330
1F
100
AcDbEntity
  8
0
  6
Continuous
 62
     8
370
    25
100
AcDbLine
 10
7289.2943917314
 20
4381.1682692308
 30
0.0
 11
7292.6943917314
 21
4381.1682692308
 31
0.0
  0
LINE
  5
378
330
1F
100
AcDbEntity
  8
0
  6
Continuous
 62
     8
370
    25
100
AcDbLine
 10
6147.0943917314
 20
4380.1682692308
 30
0.0
 11
6147.0943917314
 21
4376.7682692308
 31
0.0
  0
LINE
  5
379
330
1F
100
AcDbEntity
  8
0
  6
Continuous
 62
     8
370
    25
100
AcDbLine
 10
7288.2943917314
 20
4380.1682692308
 30
0.0
 11
7288.2943917314
 21
4376.7682692308
 31
0.0
  0
LINE
  5
37A
330
1F
100
AcDbEntity
  8
0
  6
Continuous
 62
     8
370
    25
100
AcDbLine
 10
6699.5721135218
 20
4432.1710316617
 30
0.0
 11
6697.6750155274
 21
4432.2760040374
 31
0.0
  0
LINE
  5
37B
330
1F
100
AcDbEntity
  8
0
  6
Continuous
 62
     8
370
    25
100
AcDbLine
 10
6735.816669941
 20
4432.1710316617
 30
0.0
 11
6737.7137679354
 21
4432.2760040374
 31
0.0
  0
LINE
  5
37C
330
1F
100
AcDbEntity
  8
0
  6
Continuous
 62
     8
370
    25
100
AcDbLine
 10
6699.6220371532
 20
4432.1182692308
 30
0.0
 11
6699.6220371532
 21
4430.2182692308
 31
0.0
  0
LINE
  5
37D
330
1F
100
AcDbEntity
  8
0
  6
Continuous
 62
     8
370
    25
100
AcDbLine
 10
6735.7667463096
 20
4432.1182692308
 30
0.0
 11
6735.7667463096
 21
4430.2182692308
 31
0.0
  0
LINE
  5
37E
330
1F
100
AcDbEntity
  8
0
  6
Continuous
 62
     8
370
    25
100
AcDbLine
 10
6699.0943917314
 20
4428.3682692308
 30
0.0
 11
6699.0943917314
 21
4430.2910131724
 31
0.0
  0
LINE
  5
37F
330
1F
100
AcDbEntity
  8
0
  6
Continuous
 62
     8
370
    25
100
AcDbLine
 10
6699.7943917314
 20
4433.9682692308
 30
0.0
 11
6699.7616702424
 21
4433.9682692308
 31
0.0
  0
LINE
  5
380
330
1F
100
AcDbEntity
  8
0
  6
Continuous
 62
     8
370
    25
100
AcDbLine
 10
6735.5937105028
 20
4433.9682692308
 30
0.0
 11
6735.6271132203
 21
4433.9682692308
 31
0.0
  0
LINE
  5
381
330
1F
100
AcDbEntity
  8
0
  6
Continuous
 62
     8
370
    25
100
AcDbLine
 10
6736.2937105028
 20
4430.290821831
 30
0.0
 11
6736.2937105028
 21
4428.3682692308
 31
0.0
  0
LWPOLYLINE
  5
382
330
1F
100
AcDbEntity
  8
0
  6
Continuous
 62
     8
370
    25
100
AcDbPolyline
 90
        3
 70
   128
 43
0.0
 10
6700.4943917314
 20
4435.3682692308
 10
6700.2212652806
 20
4435.3413686233
 10
6700.0173054918
 20
4435.2844716164
  0
LWPOLYLINE
  5
383
330
1F
100
AcDbEntity
  8
0
  6
Continuous
 62
     8
370
    25
100
AcDbPolyline
 90
        3
 70
   128
 43
0.0
 10
6735.3715408275
 20
4435.2842016685
 10
6735.1668369536
 20
4435.3413686233
 10
6734.8937105028
 20
4435.3682692308
  0
LINE
  5
384
330
1F
100
AcDbEntity
  8
0
  6
Continuous
 62
     8
370
    25
100
AcDbLine
 10
6700.988674322
 20
4442.2552663823
 30
0.0
 11
6700.9286977654
 21
4442.2552663823
 31
0.0
  0
LINE
  5
385
330
1F
100
AcDbEntity
  8
0
  6
Continuous
 62
     8
370
    25
100
AcDbLine
 10
6700.9286977654
 20
4420.0812720792
 30
0.0
 11
6701.1088258936
 21
4420.0812720792
 31
0.0
  0
LINE
  5
386
330
1F
100
AcDbEntity
  8
0
  6
Continuous
 62
     8
370
    25
100
AcDbLine
 10
6700.4819751365
 20
4421.0818816235
 30
0.0
 11
6700.308340281
 21
4421.0818816235
 31
0.0
  0
LINE
  5
387
330
1F
100
AcDbEntity
  8
0
  6
Continuous
 62
     8
370
    25
100
AcDbLine
 10
6700.308340281
 20
4441.2546568381
 30
0.0
 11
6700.3661695192
 21
4441.2546568381
 31
0.0
  0
LINE
  5
388
330
1F
100
AcDbEntity
  8
0
  6
Continuous
 62
     8
370
    25
100
AcDbLine
 10
6701.2700635746
 20
4442.7549617959
 30
0.0
 11
6701.3312913099
 21
4442.7549617959
 31
0.0
  0
LINE
  5
389
330
1F
100
AcDbEntity
  8
0
  6
Continuous
 62
     8
370
    25
100
AcDbLine
 10
6701.4539774694
 20
4419.5815766657
 30
0.0
 11
6701.2700635746
 21
4419.5815766657
 31
0.0
  0
LINE
  5
38A
330
1F
100
AcDbEntity
  8
0
  6
Continuous
 62
     8
370
    25
100
AcDbLine
 10
6702.895743514
 20
4444.6961112959
 30
0.0
 11
6702.8280711018
 21
4444.6961112959
 31
0.0
  0
LINE
  5
38B
330
1F
100
AcDbEntity
  8
0
  6
Continuous
 62
     8
370
    25
100
AcDbLine
 10
6710.8905188804
 20
4441.8399438325
 30
0.0
 11
6709.799865482
 21
4442.9305972309
 31
0.0
  0
LINE
  5
38C
330
1F
100
AcDbEntity
  8
0
  6
Continuous
 62
     8
370
    25
100
AcDbLine
 10
6709.799865482
 20
4419.4059412306
 30
0.0
 11
6710.8818779984
 21
4420.487953747
 31
0.0
  0
LINE
  5
38D
330
1F
100
AcDbEntity
  8
0
  6
Continuous
 62
     8
370
    25
100
AcDbLine
 10
6702.8280711018
 20
4417.6404271657
 30
0.0
 11
6703.0315138057
 21
4417.6404271657
 31
0.0
  0
LWPOLYLINE
  5
38E
330
1F
100
AcDbEntity
  8
0
  6
Continuous
 62
     8
370
    25
100
AcDbPolyline
 90
        3
 70
   128
 43
0.0
 10
6710.0040380134
 20
4445.3373817152
 10
6710.6295736638
 20
4444.8729332709
 10
6711.2132175437
 20
4444.3439492926
  0
LINE
  5
38F
330
1F
100
AcDbEntity
  8
0
  6
Continuous
 62
     8
370
    25
100
AcDbLine
 10
6704.9298331458
 20
4446.6948929499
 30
0.0
 11
6705.0087125661
 21
4446.6948929499
 31
0.0
  0
LINE
  5
390
330
1F
100
AcDbEntity
  8
0
  6
Continuous
 62
     8
370
    25
100
AcDbLine
 10
6717.7210154505
 20
4434.5114149813
 30
0.0
 11
6716.5825672468
 21
4434.5114149813
 31
0.0
  0
LINE
  5
391
330
1F
100
AcDbEntity
  8
0
  6
Continuous
 62
     8
370
    25
100
AcDbLine
 10
6714.2447924464
 20
4439.0618156963
 30
0.0
 11
6715.3700717932
 21
4440.1870950431
 31
0.0
  0
LINE
  5
392
330
1F
100
AcDbEntity
  8
0
  6
Continuous
 62
     8
370
    25
100
AcDbLine
 10
6717.7210154505
 20
4427.8251234803
 30
0.0
 11
6716.5686191131
 21
4427.8251234803
 31
0.0
  0
LINE
  5
393
330
1F
100
AcDbEntity
  8
0
  6
Continuous
 62
     8
370
    25
100
AcDbLine
 10
6715.3700717932
 20
4422.1494434184
 30
0.0
 11
6714.1644626039
 21
4423.3550526077
 31
0.0
  0
ARC
  5
394
330
1F
100
AcDbEntity
  8
0
  6
Continuous
 62
     8
370
    25
100
AcDbCircle
 10
6705.5375374819
 20
4423.6682692308
 30
0.0
 40
8.02662371911963
100
AcDbArc
 50
303.715507283
 51
315.0
  0
LINE
  5
395
330
1F
100
AcDbEntity
  8
0
  6
Continuous
 62
     8
370
    25
100
AcDbLine
 10
6705.1673627187
 20
4415.6416455117
 30
0.0
 11
6704.9298331458
 21
4415.6416455117
 31
0.0
  0
LINE
  5
396
330
1F
100
AcDbEntity
  8
0
  6
Continuous
 62
     7
370
    25
100
AcDbLine
 10
7633.6153846154
 20
4808.6559601294
 30
0.0
 11
7533.6153846154
 21
4808.6559601294
 31
0.0
  0
LINE
  5
397
330
1F
100
AcDbEntity
  8
0
  6
Continuous
 62
     7
370
    25
100
AcDbLine
 10
7533.6153846154
 20
4808.6559601294
 30
0.0
 11
7530.9153846154
 21
4808.6559601294
 31
0.0
  0
LINE
  5
398
330
1F
100
AcDbEntity
  8
0
  6
Continuous
 62
     7
370
    25
100
AcDbLine
 10
7636.3153846154
 20
4808.6559601294
 30
0.0
 11
7633.6153846154
 21
4808.6559601294
 31
0.0
  0
LINE
  5
399
330
1F
100
AcDbEntity
  8
0
  6
Continuous
 62
     7
370
    25
100
AcDbLine
 10
7580.6153846154
 20
4784.4559601294
 30
0.0
 11
7580.6153846154
 21
4769.4559601294
 31
0.0
  0
LINE
  5
39A
330
1F
100
AcDbEntity
  8
0
  6
Continuous
 62
     7
370
    25
100
AcDbLine
 10
7586.6153846154
 20
4769.4559601294
 30
0.0
 11
7586.6153846154
 21
4784.4559601294
 31
0.0
  0
LINE
  5
39B
330
1F
100
AcDbEntity
  8
0
  6
Continuous
 62
     7
370
    25
100
AcDbLine
 10
7552.0754207523
 20
4788.8603238956
 30
0.0
 11
7553.7303244493
 21
4787.848538434
 31
0.0
  0
LINE
  5
39C
330
1F
100
AcDbEntity
  8
0
  6
Continuous
 62
     7
370
    25
100
AcDbLine
 10
7613.5004447814
 20
4787.848538434
 30
0.0
 11
7615.1553484785
 21
4788.8603238956
 31
0.0
  0
LINE
  5
39D
330
1F
100
AcDbEntity
  8
0
  6
Continuous
 62
     7
370
    25
100
AcDbLine
 10
7550.3653846154
 20
4789.4559601294
 30
0.0
 11
7550.3653846154
 21
4788.8603238956
 31
0.0
  0
LINE
  5
39E
330
1F
100
AcDbEntity
  8
0
  6
Continuous
 62
     7
370
    25
100
AcDbLine
 10
7616.8653846154
 20
4788.8603238956
 30
0.0
 11
7616.8653846154
 21
4789.4559601294
 31
0.0
  0
LINE
  5
39F
330
1F
100
AcDbEntity
  8
0
  6
Continuous
 62
     7
370
    25
100
AcDbLine
 10
7543.6153846154
 20
4787.3522492817
 30
0.0
 11
7543.6153846154
 21
4786.8559601294
 31
0.0
  0
LINE
  5
3A0
330
1F
100
AcDbEntity
  8
0
  6
Continuous
 62
     7
370
    25
100
AcDbLine
 10
7623.6153846154
 20
4786.8559601294
 30
0.0
 11
7623.6153846154
 21
4787.3522492817
 31
0.0
  0
ARC
  5
3A1
330
1F
100
AcDbEntity
  8
0
  6
Continuous
 62
     7
370
    25
100
AcDbCircle
 10
7544.2657266629
 20
4787.4070188297
 30
0.0
 40
0.0547695479954696
100
AcDbArc
 50
270.0
 51
329.9999999995
  0
ARC
  5
3A2
330
1F
100
AcDbEntity
  8
0
  6
Continuous
 62
     7
370
    25
100
AcDbCircle
 10
7622.9650425679
 20
4787.4070188297
 30
0.0
 40
0.0547695479962573
100
AcDbArc
 50
210.0
 51
270.0
  0
LINE
  5
3A3
330
1F
100
AcDbEntity
  8
0
  6
Continuous
 62
     7
370
    25
100
AcDbLine
 10
7622.917610748
 20
4787.3796340557
 30
0.0
 11
7622.6784993628
 21
4787.7937871235
 31
0.0
  0
LINE
  5
3A4
330
1F
100
AcDbEntity
  8
0
  6
Continuous
 62
     7
370
    25
100
AcDbLine
 10
7544.552269868
 20
4787.7937871235
 30
0.0
 11
7544.3131584828
 21
4787.3796340557
 31
0.0
  0
ARC
  5
3A5
330
1F
100
AcDbEntity
  8
0
  6
Continuous
 62
     7
370
    25
100
AcDbCircle
 10
7544.6471019195
 20
4787.7390358131
 30
0.0
 40
0.1095026209371498
100
AcDbArc
 50
90.0
 51
150.0000000001
  0
ARC
  5
3A6
330
1F
100
AcDbEntity
  8
0
  6
Continuous
 62
     7
370
    25
100
AcDbCircle
 10
7622.5836673113
 20
4787.7390358131
 30
0.0
 40
0.1095026209371498
100
AcDbArc
 50
29.9999999999
 51
90.0
  0
LINE
  5
3A7
330
1F
100
AcDbEntity
  8
0
  6
Continuous
 62
     7
370
    25
100
AcDbLine
 10
7622.5836673113
 20
4787.848538434
 30
0.0
 11
7589.3888873073
 21
4787.848538434
 31
0.0
  0
LINE
  5
3A8
330
1F
100
AcDbEntity
  8
0
  6
Continuous
 62
     7
370
    25
100
AcDbLine
 10
7577.8418819235
 20
4787.848538434
 30
0.0
 11
7544.6471019195
 21
4787.848538434
 31
0.0
  0
LINE
  5
3A9
330
1F
100
AcDbEntity
  8
0
  6
Continuous
 62
     7
370
    25
100
AcDbLine
 10
7563.6154798113
 20
4751.5485266444
 30
0.0
 11
7563.6154798113
 21
4750.9502880837
 31
0.0
  0
LINE
  5
3AA
330
1F
100
AcDbEntity
  8
0
  6
Continuous
 62
     7
370
    25
100
AcDbLine
 10
7603.6152894194
 20
4750.9502880837
 30
0.0
 11
7603.6152894194
 21
4751.5485266444
 31
0.0
  0
ARC
  5
3AB
330
1F
100
AcDbEntity
  8
0
  6
Continuous
 62
     7
370
    25
100
AcDbCircle
 10
7583.6153846154
 20
4751.7068125779
 30
0.0
 40
26.99999999999921
100
AcDbArc
 50
0.0
 51
83.6206297916
  0
ARC
  5
3AC
330
1F
100
AcDbEntity
  8
0
  6
Continuous
 62
     7
370
    25
100
AcDbCircle
 10
7583.6153846154
 20
4751.7068125779
 30
0.0
 40
26.99999999999991
100
AcDbArc
 50
96.3793702084
 51
0.0
  0
ARC
  5
3AD
330
1F
100
AcDbEntity
  8
0
  6
Continuous
 62
     7
370
    25
100
AcDbCircle
 10
7619.2396872063
 20
4681.5250116813
 30
0.0
 40
52.79442234708434
100
AcDbArc
 50
98.6113344955
 51
109.5792512049
  0
ARC
  5
3AE
330
1F
100
AcDbEntity
  8
0
  6
Continuous
 62
     7
370
    25
100
AcDbCircle
 10
7548.2638905865
 20
4682.565667689
 30
0.0
 40
51.72268379386389
100
AcDbArc
 50
70.3260562123
 51
81.523490746
  0
LINE
  5
3AF
330
1F
100
AcDbEntity
  8
0
  6
Continuous
 62
     7
370
    25
100
AcDbLine
 10
7625.3653846154
 20
4783.8559601294
 30
0.0
 11
7625.3653846154
 21
4786.8559601294
 31
0.0
  0
LINE
  5
3B0
330
1F
100
AcDbEntity
  8
0
  6
Continuous
 62
     7
370
    25
100
AcDbLine
 10
7541.8653846154
 20
4786.8559601294
 30
0.0
 11
7541.8653846154
 21
4783.8559601294
 31
0.0
  0
LWPOLYLINE
  5
3B1
330
1F
100
AcDbEntity
  8
0
  6
Continuous
 62
     7
370
    25
100
AcDbPolyline
 90
       14
 70
   128
 43
0.0
 10
7536.9108381103
 20
4749.1900463107
 10
7536.9255487672
 20
4748.1798051071
 10
7537.2684939786
 20
4746.1992293769
 10
7537.9109606666
 20
4744.3491709189
 10
7538.8201784599
 20
4742.6488086621
 10
7539.971086934
 20
4741.1008018012
 10
7541.3583101556
 20
4739.6922413249
 10
7542.9988351784
 20
4738.4059736081
 10
7544.9307579993
 20
4737.2277521276
 10
7547.1946500437
 20
4736.1566403216
 10
7549.7895478198
 20
4735.2116670827
 10
7552.6225541685
 20
4734.422967106
 10
7555.657067851
 20
4733.7717499779
 10
7555.926453206
 20
4733.7268292129
  0
LWPOLYLINE
  5
3B2
330
1F
100
AcDbEntity
  8
0
  6
Continuous
 62
     7
370
    25
100
AcDbPolyline
 90
       13
 70
   128
 43
0.0
 10
7611.2839081982
 20
4733.736669683
 10
7612.8455502006
 20
4734.0255361533
 10
7615.7230224016
 20
4734.7084254694
 10
7618.488336368
 20
4735.5666825889
 10
7620.9932310534
 20
4736.5877318735
 10
7623.357674059
 20
4737.8576354369
 10
7625.1838084556
 20
4739.1425058459
 10
7626.7113149387
 20
4740.5353355051
 10
7627.9660418762
 20
4742.0363287279
 10
7628.960985551
 20
4743.6458097148
 10
7629.7571430608
 20
4745.5420042175
 10
7630.2147510203
 20
4747.4783325342
 10
7630.3366544958
 20
4749.1993087701
  0
LINE
  5
3B3
330
1F
100
AcDbEntity
  8
0
  6
Continuous
 62
     7
370
    25
100
AcDbLine
 10
7536.7316805861
 20
4765.5297618265
 30
0.0
 11
7536.8744769157
 21
4749.1669231748
 31
0.0
  0
LINE
  5
3B4
330
1F
100
AcDbEntity
  8
0
  6
Continuous
 62
     7
370
    25
100
AcDbLine
 10
7630.3563440942
 20
4749.1728564797
 30
0.0
 11
7630.6153846154
 21
4778.8559601294
 31
0.0
  0
ARC
  5
3B5
330
1F
100
AcDbEntity
  8
0
  6
Continuous
 62
     7
370
    25
100
AcDbCircle
 10
7536.6153846154
 20
4781.8559601294
 30
0.0
 40
1.999999999999676
100
AcDbArc
 50
120.0010464821
 51
180.0
  0
ARC
  5
3B6
330
1F
100
AcDbEntity
  8
0
  6
Continuous
 62
     7
370
    25
100
AcDbCircle
 10
7630.6153846154
 20
4781.8559601294
 30
0.0
 40
2.000000000000909
100
AcDbArc
 50
0.0
 51
90.0
  0
LINE
  5
3B7
330
1F
100
AcDbEntity
  8
0
  6
Continuous
 62
     7
370
    25
100
AcDbLine
 10
7632.6153846154
 20
4778.8559601294
 30
0.0
 11
7632.6153846154
 21
4781.8559601294
 31
0.0
  0
LINE
  5
3B8
330
1F
100
AcDbEntity
  8
0
  6
Continuous
 62
     7
370
    25
100
AcDbLine
 10
7534.6153846154
 20
4781.8559601294
 30
0.0
 11
7534.6153846154
 21
4778.8559601294
 31
0.0
  0
LINE
  5
3B9
330
1F
100
AcDbEntity
  8
0
  6
Continuous
 62
     7
370
    25
100
AcDbLine
 10
7550.7653644287
 20
4734.9400028356
 30
0.0
 11
7551.3746396331
 21
4711.6727214912
 31
0.0
  0
LINE
  5
3BA
330
1F
100
AcDbEntity
  8
0
  6
Continuous
 62
     7
370
    25
100
AcDbLine
 10
7615.8561295976
 20
4711.6727214912
 30
0.0
 11
7616.4653739734
 21
4734.9388255359
 31
0.0
  0
ARC
  5
3BB
330
1F
100
AcDbEntity
  8
0
  6
Continuous
 62
     7
370
    25
100
AcDbCircle
 10
7608.8585283228
 20
4711.8559601294
 30
0.0
 40
7.000000000000909
100
AcDbArc
 50
270.0
 51
358.5
  0
ARC
  5
3BC
330
1F
100
AcDbEntity
  8
0
  6
Continuous
 62
     7
370
    25
100
AcDbCircle
 10
7558.372240908
 20
4711.8559601294
 30
0.0
 40
7.000000000000909
100
AcDbArc
 50
181.5
 51
270.0
  0
LINE
  5
3BD
330
1F
100
AcDbEntity
  8
0
  6
Continuous
 62
     7
370
    25
100
AcDbLine
 10
7528.6153846154
 20
4694.6559601294
 30
0.0
 11
7528.6153846154
 21
4764.6559601294
 31
0.0
  0
LINE
  5
3BE
330
1F
100
AcDbEntity
  8
0
  6
Continuous
 62
     7
370
    25
100
AcDbLine
 10
7518.6153846154
 20
4764.6559601294
 30
0.0
 11
7518.6153846154
 21
4694.6559601294
 31
0.0
  0
LINE
  5
3BF
330
1F
100
AcDbEntity
  8
0
  6
Continuous
 62
     7
370
    25
100
AcDbLine
 10
7528.6153846154
 20
4773.6559601294
 30
0.0
 11
7527.6153846154
 21
4774.6559601294
 31
0.0
  0
LINE
  5
3C0
330
1F
100
AcDbEntity
  8
0
  6
Continuous
 62
     7
370
    25
100
AcDbLine
 10
7519.6153846154
 20
4774.6559601294
 30
0.0
 11
7518.6153846154
 21
4773.6559601294
 31
0.0
  0
LINE
  5
3C1
330
1F
100
AcDbEntity
  8
0
  6
Continuous
 62
     7
370
    25
100
AcDbLine
 10
7675.6153846154
 20
4773.6559601294
 30
0.0
 11
7674.6153846154
 21
4774.6559601294
 31
0.0
  0
LINE
  5
3C2
330
1F
100
AcDbEntity
  8
0
  6
Continuous
 62
     7
370
    25
100
AcDbLine
 10
7666.6153846154
 20
4774.6559601294
 30
0.0
 11
7665.6153846154
 21
4773.6559601294
 31
0.0
  0
LINE
  5
3C3
330
1F
100
AcDbEntity
  8
0
  6
Continuous
 62
     7
370
    25
100
AcDbLine
 10
7675.6153846154
 20
4689.6559601294
 30
0.0
 11
7675.6153846154
 21
4764.6559601294
 31
0.0
  0
LINE
  5
3C4
330
1F
100
AcDbEntity
  8
0
  6
Continuous
 62
     7
370
    25
100
AcDbLine
 10
7665.6153846154
 20
4764.6559601294
 30
0.0
 11
7665.6153846154
 21
4689.6559601294
 31
0.0
  0
LINE
  5
3C5
330
1F
100
AcDbEntity
  8
0
  6
Continuous
 62
     7
370
    25
100
AcDbLine
 10
7510.9153846154
 20
4791.4559601294
 30
0.0
 11
7510.9153846154
 21
4861.4559601294
 31
0.0
  0
LINE
  5
3C6
330
1F
100
AcDbEntity
  8
0
  6
Continuous
 62
     7
370
    25
100
AcDbLine
 10
7510.9153846154
 20
4861.4559601294
 30
0.0
 11
7512.4153846154
 21
4861.4559601294
 31
0.0
  0
LINE
  5
3C7
330
1F
100
AcDbEntity
  8
0
  6
Continuous
 62
     7
370
    25
100
AcDbLine
 10
7512.4153846154
 20
4792.6559601294
 30
0.0
 11
7512.4153846154
 21
4861.4559601294
 31
0.0
  0
LINE
  5
3C8
330
1F
100
AcDbEntity
  8
0
  6
Continuous
 62
     7
370
    25
100
AcDbLine
 10
7512.4153846154
 20
4792.6559601294
 30
0.0
 11
7654.8153846154
 21
4792.6559601294
 31
0.0
  0
LINE
  5
3C9
330
1F
100
AcDbEntity
  8
0
  6
Continuous
 62
     7
370
    25
100
AcDbLine
 10
7654.8153846154
 20
4792.6559601294
 30
0.0
 11
7654.8153846154
 21
4791.4559601294
 31
0.0
  0
LINE
  5
3CA
330
1F
100
AcDbEntity
  8
0
  6
Continuous
 62
     7
370
    25
100
AcDbLine
 10
7510.9153846154
 20
4791.4559601294
 30
0.0
 11
7654.8153846154
 21
4791.4559601294
 31
0.0
  0
LINE
  5
3CB
330
1F
100
AcDbEntity
  8
0
  6
Continuous
 62
     7
370
    25
100
AcDbLine
 10
7633.6153846154
 20
4806.604418798
 30
0.0
 11
7533.6153846154
 21
4806.604418798
 31
0.0
  0
LINE
  5
3CC
330
1F
100
AcDbEntity
  8
0
  6
Continuous
 62
     7
370
    25
100
AcDbLine
 10
7533.6153846154
 20
4806.604418798
 30
0.0
 11
7529.2521291653
 21
4806.604418798
 31
0.0
  0
ARC
  5
3CD
330
1F
100
AcDbEntity
  8
0
  6
Continuous
 62
     7
370
    25
100
AcDbCircle
 10
7530.8970152825
 20
4806.9631951597
 30
0.0
 40
1.683558973215636
100
AcDbArc
 50
89.3750030156
 51
192.3044287047
  0
LINE
  5
3CE
330
1F
100
AcDbEntity
  8
0
  6
Continuous
 62
     7
370
    25
100
AcDbLine
 10
7637.9786400655
 20
4806.604418798
 30
0.0
 11
7633.6153846154
 21
4806.604418798
 31
0.0
  0
ARC
  5
3CF
330
1F
100
AcDbEntity
  8
0
  6
Continuous
 62
     7
370
    25
100
AcDbCircle
 10
7636.3153846154
 20
4806.9559601294
 30
0.0
 40
1.700000000000728
100
AcDbArc
 50
348.0657534268
 51
90.0
  0
LINE
  5
3D0
330
1F
100
AcDbEntity
  8
0
  6
Continuous
 62
     7
370
    25
100
AcDbLine
 10
7533.6153846154
 20
4802.3973608948
 30
0.0
 11
7530.1413219447
 21
4802.3973608948
 31
0.0
  0
LINE
  5
3D1
330
1F
100
AcDbEntity
  8
0
  6
Continuous
 62
     7
370
    25
100
AcDbLine
 10
7529.2521291653
 20
4806.604418798
 30
0.0
 11
7530.1413219447
 21
4802.3973608948
 31
0.0
  0
LINE
  5
3D2
330
1F
100
AcDbEntity
  8
0
  6
Continuous
 62
     7
370
    25
100
AcDbLine
 10
7533.6153846154
 20
4806.604418798
 30
0.0
 11
7533.6153846154
 21
4802.3973608948
 31
0.0
  0
LINE
  5
3D3
330
1F
100
AcDbEntity
  8
0
  6
Continuous
 62
     7
370
    25
100
AcDbLine
 10
7633.6153846154
 20
4802.3973608948
 30
0.0
 11
7533.6153846154
 21
4802.3973608948
 31
0.0
  0
LINE
  5
3D4
330
1F
100
AcDbEntity
  8
0
  6
Continuous
 62
     7
370
    25
100
AcDbLine
 10
7633.6153846154
 20
4806.604418798
 30
0.0
 11
7633.6153846154
 21
4802.3973608948
 31
0.0
  0
LINE
  5
3D5
330
1F
100
AcDbEntity
  8
0
  6
Continuous
 62
     7
370
    25
100
AcDbLine
 10
7637.089447286
 20
4802.3973608948
 30
0.0
 11
7633.6153846154
 21
4802.3973608948
 31
0.0
  0
LINE
  5
3D6
330
1F
100
AcDbEntity
  8
0
  6
Continuous
 62
     7
370
    25
100
AcDbLine
 10
7637.9786400655
 20
4806.604418798
 30
0.0
 11
7637.089447286
 21
4802.3973608948
 31
0.0
  0
LINE
  5
3D7
330
1F
100
AcDbEntity
  8
0
  6
Continuous
 62
     7
370
    25
100
AcDbLine
 10
7531.4153846154
 20
4802.3973608948
 30
0.0
 11
7531.4153846154
 21
4792.6559601294
 31
0.0
  0
LINE
  5
3D8
330
1F
100
AcDbEntity
  8
0
  6
Continuous
 62
     7
370
    25
100
AcDbLine
 10
7635.8153846154
 20
4802.3973608948
 30
0.0
 11
7635.8153846154
 21
4792.6559601294
 31
0.0
  0
LINE
  5
3D9
330
1F
100
AcDbEntity
  8
0
  6
Continuous
 62
     7
370
    25
100
AcDbLine
 10
7513.6152494447
 20
4766.6559601294
 30
0.0
 11
7534.6152494447
 21
4766.6559601294
 31
0.0
  0
ARC
  5
3DA
330
1F
100
AcDbEntity
  8
0
  6
Continuous
 62
     7
370
    25
100
AcDbCircle
 10
7534.6152494447
 20
4767.6559601294
 30
0.0
 40
1.000000000000197
100
AcDbArc
 50
270.0
 51
359.9996276583
  0
LINE
  5
3DB
330
1F
100
AcDbEntity
  8
0
  6
Continuous
 62
     7
370
    25
100
AcDbLine
 10
7535.6152494446
 20
4767.6559536308
 30
0.0
 11
7535.6153846154
 21
4788.4559796252
 31
0.0
  0
ARC
  5
3DC
330
1F
100
AcDbEntity
  8
0
  6
Continuous
 62
     7
370
    25
100
AcDbCircle
 10
7538.6153846154
 20
4788.4559601294
 30
0.0
 40
2.999999999999683
100
AcDbArc
 50
90.0
 51
179.9996276583
  0
ARC
  5
3DD
330
1F
100
AcDbEntity
  8
0
  6
Continuous
 62
     7
370
    25
100
AcDbCircle
 10
7628.6153846154
 20
4788.4559601294
 30
0.0
 40
2.999999999999499
100
AcDbArc
 50
48.6002523617
 51
90.0
  0
LINE
  5
3DE
330
1F
100
AcDbEntity
  8
0
  6
Continuous
 62
     7
370
    25
100
AcDbLine
 10
7630.5993102996
 20
4790.7063020766
 30
0.0
 11
7657.5958680667
 21
4766.905846147
 31
0.0
  0
ARC
  5
3DF
330
1F
100
AcDbEntity
  8
0
  6
Continuous
 62
     7
370
    25
100
AcDbCircle
 10
7658.2571766281
 20
4767.6559601294
 30
0.0
 40
1.0
100
AcDbArc
 50
228.6002523617
 51
270.0
  0
LINE
  5
3E0
330
1F
100
AcDbEntity
  8
0
  6
Continuous
 62
     7
370
    25
100
AcDbLine
 10
7658.2571766281
 20
4766.6559601294
 30
0.0
 11
7679.2571766281
 21
4766.6559601294
 31
0.0
  0
LINE
  5
3E1
330
1F
100
AcDbEntity
  8
0
  6
Continuous
 62
     7
370
    25
100
AcDbLine
 10
7679.2571766281
 20
4766.6559601294
 30
0.0
 11
7679.2571766281
 21
4764.6559601294
 31
0.0
  0
LINE
  5
3E2
330
1F
100
AcDbEntity
  8
0
  6
Continuous
 62
     7
370
    25
100
AcDbLine
 10
7679.2571766281
 20
4764.6559601294
 30
0.0
 11
7658.2571766281
 21
4764.6559601294
 31
0.0
  0
ARC
  5
3E3
330
1F
100
AcDbEntity
  8
0
  6
Continuous
 62
     7
370
    25
100
AcDbCircle
 10
7658.2571766281
 20
4767.6559601294
 30
0.0
 40
3.0
100
AcDbArc
 50
228.6002523617
 51
270.0
  0
LINE
  5
3E4
330
1F
100
AcDbEntity
  8
0
  6
Continuous
 62
     7
370
    25
100
AcDbLine
 10
7656.2732509439
 20
4765.4056181822
 30
0.0
 11
7629.2766931768
 21
4789.2060741118
 31
0.0
  0
ARC
  5
3E5
330
1F
100
AcDbEntity
  8
0
  6
Continuous
 62
     7
370
    25
100
AcDbCircle
 10
7628.6153846154
 20
4788.4559601294
 30
0.0
 40
0.9999999999990905
100
AcDbArc
 50
48.6002523617
 51
90.0
  0
LINE
  5
3E6
330
1F
100
AcDbEntity
  8
0
  6
Continuous
 62
     7
370
    25
100
AcDbLine
 10
7628.6153846154
 20
4789.4559601294
 30
0.0
 11
7538.6153846154
 21
4789.4559601294
 31
0.0
  0
ARC
  5
3E7
330
1F
100
AcDbEntity
  8
0
  6
Continuous
 62
     7
370
    25
100
AcDbCircle
 10
7538.6153846154
 20
4788.4559601294
 30
0.0
 40
0.9999999999992879
100
AcDbArc
 50
90.0
 51
179.9996276583
  0
LINE
  5
3E8
330
1F
100
AcDbEntity
  8
0
  6
Continuous
 62
     7
370
    25
100
AcDbLine
 10
7537.6153846154
 20
4788.455966628
 30
0.0
 11
7537.6152494446
 21
4767.6559406336
 31
0.0
  0
ARC
  5
3E9
330
1F
100
AcDbEntity
  8
0
  6
Continuous
 62
     7
370
    25
100
AcDbCircle
 10
7534.6152494447
 20
4767.6559601294
 30
0.0
 40
3.0
100
AcDbArc
 50
270.0
 51
359.9996276583
  0
LINE
  5
3EA
330
1F
100
AcDbEntity
  8
0
  6
Continuous
 62
     7
370
    25
100
AcDbLine
 10
7534.6152494447
 20
4764.6559601294
 30
0.0
 11
7513.6152494447
 21
4764.6559601294
 31
0.0
  0
LINE
  5
3EB
330
1F
100
AcDbEntity
  8
0
  6
Continuous
 62
     7
370
    25
100
AcDbLine
 10
7513.6152494447
 20
4764.6559601294
 30
0.0
 11
7513.6152494447
 21
4766.6559601294
 31
0.0
  0
LINE
  5
3EC
330
1F
100
AcDbEntity
  8
0
  6
Continuous
 62
     7
370
    25
100
AcDbLine
 10
7513.8004300392
 20
4773.6559601294
 30
0.0
 11
7513.8004300392
 21
4766.6559601294
 31
0.0
  0
LINE
  5
3ED
330
1F
100
AcDbEntity
  8
0
  6
Continuous
 62
     7
370
    25
100
AcDbLine
 10
7518.7079073273
 20
4773.6559601294
 30
0.0
 11
7513.8004300392
 21
4773.6559601294
 31
0.0
  0
LINE
  5
3EE
330
1F
100
AcDbEntity
  8
0
  6
Continuous
 62
     7
370
    25
100
AcDbLine
 10
7518.7079073273
 20
4773.6559601294
 30
0.0
 11
7518.7079073273
 21
4766.6559601294
 31
0.0
  0
LINE
  5
3EF
330
1F
100
AcDbEntity
  8
0
  6
Continuous
 62
     7
370
    25
100
AcDbLine
 10
7528.5228619035
 20
4773.6559601294
 30
0.0
 11
7528.5228619035
 21
4766.6559601294
 31
0.0
  0
LINE
  5
3F0
330
1F
100
AcDbEntity
  8
0
  6
Continuous
 62
     7
370
    25
100
AcDbLine
 10
7528.5228619035
 20
4773.6559601294
 30
0.0
 11
7518.7079073273
 21
4773.6559601294
 31
0.0
  0
LINE
  5
3F1
330
1F
100
AcDbEntity
  8
0
  6
Continuous
 62
     7
370
    25
100
AcDbLine
 10
7533.4303391916
 20
4773.6559601294
 30
0.0
 11
7533.4303391916
 21
4766.6559601294
 31
0.0
  0
LINE
  5
3F2
330
1F
100
AcDbEntity
  8
0
  6
Continuous
 62
     7
370
    25
100
AcDbLine
 10
7533.4303391916
 20
4773.6559601294
 30
0.0
 11
7528.5228619035
 21
4773.6559601294
 31
0.0
  0
LINE
  5
3F3
330
1F
100
AcDbEntity
  8
0
  6
Continuous
 62
     7
370
    25
100
AcDbLine
 10
7660.8004300392
 20
4773.6559601294
 30
0.0
 11
7660.8004300392
 21
4766.6559601294
 31
0.0
  0
LINE
  5
3F4
330
1F
100
AcDbEntity
  8
0
  6
Continuous
 62
     7
370
    25
100
AcDbLine
 10
7665.7079073273
 20
4773.6559601294
 30
0.0
 11
7660.8004300392
 21
4773.6559601294
 31
0.0
  0
LINE
  5
3F5
330
1F
100
AcDbEntity
  8
0
  6
Continuous
 62
     7
370
    25
100
AcDbLine
 10
7665.7079073273
 20
4773.6559601294
 30
0.0
 11
7665.7079073273
 21
4766.6559601294
 31
0.0
  0
LINE
  5
3F6
330
1F
100
AcDbEntity
  8
0
  6
Continuous
 62
     7
370
    25
100
AcDbLine
 10
7675.5228619035
 20
4773.6559601294
 30
0.0
 11
7675.5228619035
 21
4766.6559601294
 31
0.0
  0
LINE
  5
3F7
330
1F
100
AcDbEntity
  8
0
  6
Continuous
 62
     7
370
    25
100
AcDbLine
 10
7680.4303391916
 20
4773.6559601294
 30
0.0
 11
7680.4303391916
 21
4766.6559601294
 31
0.0
  0
LINE
  5
3F8
330
1F
100
AcDbEntity
  8
0
  6
Continuous
 62
     7
370
    25
100
AcDbLine
 10
7680.4303391916
 20
4766.6559601294
 30
0.0
 11
7679.2571766281
 21
4766.6559601294
 31
0.0
  0
LINE
  5
3F9
330
1F
100
AcDbEntity
  8
0
  6
Continuous
 62
     7
370
    25
100
AcDbLine
 10
7680.4303391916
 20
4773.6559601294
 30
0.0
 11
7675.5228619035
 21
4773.6559601294
 31
0.0
  0
LINE
  5
3FA
330
1F
100
AcDbEntity
  8
0
  6
Continuous
 62
     7
370
    25
100
AcDbLine
 10
7675.5228619035
 20
4773.6559601294
 30
0.0
 11
7665.7079073273
 21
4773.6559601294
 31
0.0
  0
LINE
  5
3FB
330
1F
100
AcDbEntity
  8
0
  6
Continuous
 62
     7
370
    25
100
AcDbLine
 10
7589.3888873073
 20
4784.4559601294
 30
0.0
 11
7589.3888873073
 21
4789.4559601294
 31
0.0
  0
LINE
  5
3FC
330
1F
100
AcDbEntity
  8
0
  6
Continuous
 62
     7
370
    25
100
AcDbLine
 10
7586.5021359613
 20
4784.4559601294
 30
0.0
 11
7589.3888873073
 21
4784.4559601294
 31
0.0
  0
LINE
  5
3FD
330
1F
100
AcDbEntity
  8
0
  6
Continuous
 62
     7
370
    25
100
AcDbLine
 10
7586.5021359613
 20
4784.4559601294
 30
0.0
 11
7586.5021359613
 21
4789.4559601294
 31
0.0
  0
LINE
  5
3FE
330
1F
100
AcDbEntity
  8
0
  6
Continuous
 62
     7
370
    25
100
AcDbLine
 10
7580.7286332694
 20
4784.4559601294
 30
0.0
 11
7580.7286332694
 21
4789.4559601294
 31
0.0
  0
LINE
  5
3FF
330
1F
100
AcDbEntity
  8
0
  6
Continuous
 62
     7
370
    25
100
AcDbLine
 10
7580.7286332694
 20
4784.4559601294
 30
0.0
 11
7586.5021359613
 21
4784.4559601294
 31
0.0
  0
LINE
  5
400
330
1F
100
AcDbEntity
  8
0
  6
Continuous
 62
     7
370
    25
100
AcDbLine
 10
7577.8418819235
 20
4784.4559601294
 30
0.0
 11
7577.8418819235
 21
4789.4559601294
 31
0.0
  0
LINE
  5
401
330
1F
100
AcDbEntity
  8
0
  6
Continuous
 62
     7
370
    25
100
AcDbLine
 10
7577.8418819235
 20
4784.4559601294
 30
0.0
 11
7580.7286332694
 21
4784.4559601294
 31
0.0
  0
LINE
  5
402
330
1F
100
AcDbEntity
  8
0
  6
Continuous
 62
     7
370
    25
100
AcDbLine
 10
7580.6153846154
 20
4769.4559601294
 30
0.0
 11
7586.6153846154
 21
4769.4559601294
 31
0.0
  0
LINE
  5
403
330
1F
100
AcDbEntity
  8
0
  6
Continuous
 62
     7
370
    25
100
AcDbLine
 10
7616.8653846154
 20
4788.8603238956
 30
0.0
 11
7589.3888873073
 21
4788.8603238956
 31
0.0
  0
LINE
  5
404
330
1F
100
AcDbEntity
  8
0
  6
Continuous
 62
     7
370
    25
100
AcDbLine
 10
7577.8418819235
 20
4788.8603238956
 30
0.0
 11
7550.3653846154
 21
4788.8603238956
 31
0.0
  0
LINE
  5
405
330
1F
100
AcDbEntity
  8
0
  6
Continuous
 62
     7
370
    25
100
AcDbLine
 10
7543.6153846154
 20
4787.3522492817
 30
0.0
 11
7577.8418819235
 21
4787.3522492817
 31
0.0
  0
LINE
  5
406
330
1F
100
AcDbEntity
  8
0
  6
Continuous
 62
     7
370
    25
100
AcDbLine
 10
7589.3888873073
 20
4787.3522492817
 30
0.0
 11
7623.6153846154
 21
4787.3522492817
 31
0.0
  0
LWPOLYLINE
  5
407
330
1F
100
AcDbEntity
  8
0
  6
Continuous
 62
     7
370
    25
100
AcDbPolyline
 90
        8
 70
   128
 43
0.0
 10
7593.7004234253
 20
4764.7857238716
 10
7593.2596716797
 20
4764.782317777
 10
7589.6889401678
 20
4764.7565387162
 10
7585.9546495423
 20
4764.7312596299
 10
7582.1673845622
 20
4764.7069894939
 10
7578.4361637758
 20
4764.6820150697
 10
7574.8517507244
 20
4764.65631863
 10
7573.590482919
 20
4764.6465948725
  0
LINE
  5
408
330
1F
100
AcDbEntity
  8
0
  6
Continuous
 62
     7
370
    25
100
AcDbLine
 10
7583.6153846154
 20
4763.3559601294
 30
0.0
 11
7593.306229759
 21
4763.3559601294
 31
0.0
  0
LINE
  5
409
330
1F
100
AcDbEntity
  8
0
  6
Continuous
 62
     7
370
    25
100
AcDbLine
 10
7573.9245394718
 20
4763.3559601294
 30
0.0
 11
7583.6153846154
 21
4763.3559601294
 31
0.0
  0
LWPOLYLINE
  5
40A
330
1F
100
AcDbEntity
  8
0
  6
Continuous
 62
     7
370
    25
100
AcDbPolyline
 90
        7
 70
   128
 43
0.0
 10
7574.4828465825
 20
4765.6966789239
 10
7574.7371289845
 20
4765.6997101253
 10
7579.1327771038
 20
4765.7479624977
 10
7583.6153846154
 20
4765.7934601253
 10
7588.0979921269
 20
4765.8389577529
 10
7592.4936402463
 20
4765.8872101253
 10
7592.5608656759
 20
4765.8880114935
  0
LWPOLYLINE
  5
40B
330
1F
100
AcDbEntity
  8
0
  6
Continuous
 62
     7
370
    25
100
AcDbPolyline
 90
        5
 70
   128
 43
0.0
 10
7574.8511960689
 20
4765.8884622786
 10
7579.1327771038
 20
4765.9354625018
 10
7583.6153846154
 20
4765.9809601294
 10
7588.0979921269
 20
4766.026457757
 10
7592.1561093138
 20
4766.0710049492
  0
LWPOLYLINE
  5
40C
330
1F
100
AcDbEntity
  8
0
  6
Continuous
 62
     7
370
    25
100
AcDbPolyline
 90
        7
 70
   128
 43
0.0
 10
7573.7235523009
 20
4765.2146014562
 10
7575.0478292088
 20
4765.2309601273
 10
7579.2896488157
 20
4765.2792124998
 10
7583.6153846154
 20
4765.3247101273
 10
7587.9411204151
 20
4765.3702077549
 10
7592.182940022
 20
4765.4184601273
 10
7593.3016930401
 20
4765.4322799808
  0
LWPOLYLINE
  5
40D
330
1F
100
AcDbEntity
  8
0
  6
Continuous
 62
     7
370
    25
100
AcDbPolyline
 90
        4
 70
   128
 43
0.0
 10
7576.501094238
 20
4766.7474915907
 10
7579.2896488157
 20
4766.7792124998
 10
7583.6153846154
 20
4766.8247101273
 10
7586.5865121185
 20
4766.8559601294
  0
LWPOLYLINE
  5
40E
330
1F
100
AcDbEntity
  8
0
  6
Continuous
 62
     7
370
    25
100
AcDbPolyline
 90
        7
 70
   128
 43
0.0
 10
7573.7118665607
 20
4764.8394571033
 10
7575.0478292088
 20
4764.8559601273
 10
7579.2896488157
 20
4764.9042124998
 10
7583.6153846154
 20
4764.9497101273
 10
7587.9411204151
 20
4764.9952077549
 10
7592.182940022
 20
4765.0434601273
 10
7593.5120273665
 20
4765.0598782214
  0
LWPOLYLINE
  5
40F
330
1F
100
AcDbEntity
  8
0
  6
Continuous
 62
     7
370
    25
100
AcDbPolyline
 90
        5
 70
   128
 43
0.0
 10
7575.7647614051
 20
4766.3641155141
 10
7579.2896488157
 20
4766.4042124998
 10
7583.6153846154
 20
4766.4497101273
 10
7587.9411204151
 20
4766.4952077549
 10
7591.1374098095
 20
4766.5315668085
  0
CIRCLE
  5
410
330
1F
100
AcDbEntity
  8
0
  6
Continuous
 62
     7
370
    25
100
AcDbCircle
 10
7583.6153213963
 20
4750.9192362129
 30
0.0
 40
17.49968043751192
  0
ARC
  5
411
330
1F
100
AcDbEntity
  8
0
  6
Continuous
 62
     7
370
    25
100
AcDbCircle
 10
7583.6153846154
 20
4750.9193712993
 30
0.0
 40
19.71434232641745
100
AcDbArc
 50
98.7529037444
 51
81.2470962556
  0
ARC
  5
412
330
1F
100
AcDbEntity
  8
0
  6
Continuous
 62
     7
370
    25
100
AcDbCircle
 10
7583.6153846154
 20
4750.9498053981
 30
0.0
 40
19.99963762810323
100
AcDbArc
 50
98.6270840614
 51
81.3729159386
  0
ARC
  5
413
330
1F
100
AcDbEntity
  8
0
  6
Continuous
 62
     7
370
    25
100
AcDbCircle
 10
7583.6159448703
 20
4751.5482553953
 30
0.0
 40
19.99934455094885
100
AcDbArc
 50
0.0007770969
 51
81.3744119802
  0
ARC
  5
414
330
1F
100
AcDbEntity
  8
0
  6
Continuous
 62
     7
370
    25
100
AcDbCircle
 10
7583.6148964992
 20
4751.5481933734
 30
0.0
 40
19.99941669060129
100
AcDbArc
 50
98.6257657018
 51
179.9990452211
  0
ARC
  5
415
330
1F
100
AcDbEntity
  8
0
  6
Continuous
 62
     7
370
    25
100
AcDbCircle
 10
7581.1757678712
 20
4751.7970316132
 30
0.0
 40
15.04056685106807
100
AcDbArc
 50
177.7865545128
 51
205.5322813903
  0
ARC
  5
416
330
1F
100
AcDbEntity
  8
0
  6
Continuous
 62
     7
370
    25
100
AcDbCircle
 10
7583.6153846154
 20
4752.3778728355
 30
0.0
 40
17.50023986067682
100
AcDbArc
 50
203.8052968746
 51
336.1947031254
  0
ARC
  5
417
330
1F
100
AcDbEntity
  8
0
  6
Continuous
 62
     7
370
    25
100
AcDbCircle
 10
7585.2690768897
 20
4751.9032647065
 30
0.0
 40
15.7973958778365
100
AcDbArc
 50
335.348694842
 51
1.7302785812
  0
ARC
  5
418
330
1F
100
AcDbEntity
  8
0
  6
Continuous
 62
     7
370
    25
100
AcDbCircle
 10
7583.6154352503
 20
4752.2699535421
 30
0.0
 40
26.51314433543029
100
AcDbArc
 50
59.5202020097
 51
83.5030967339
  0
ARC
  5
419
330
1F
100
AcDbEntity
  8
0
  6
Continuous
 62
     7
370
    25
100
AcDbCircle
 10
7583.6153268351
 20
4752.2699749118
 30
0.0
 40
26.51312229447709
100
AcDbArc
 50
96.4968931491
 51
120.4798080925
  0
LINE
  5
41A
330
1F
100
AcDbEntity
  8
0
  6
Continuous
 62
     7
370
    25
100
AcDbLine
 10
7559.5957682804
 20
4781.8559601294
 30
0.0
 11
7559.5957682804
 21
4778.8559601294
 31
0.0
  0
LINE
  5
41B
330
1F
100
AcDbEntity
  8
0
  6
Continuous
 62
     7
370
    25
100
AcDbLine
 10
7566.4821201387
 20
4781.8559601294
 30
0.0
 11
7559.5957682804
 21
4781.8559601294
 31
0.0
  0
LINE
  5
41C
330
1F
100
AcDbEntity
  8
0
  6
Continuous
 62
     7
370
    25
100
AcDbLine
 10
7566.4821201387
 20
4781.8559601294
 30
0.0
 11
7566.4821201387
 21
4778.8559601294
 31
0.0
  0
LINE
  5
41D
330
1F
100
AcDbEntity
  8
0
  6
Continuous
 62
     7
370
    25
100
AcDbLine
 10
7559.5957682804
 20
4778.8559601294
 30
0.0
 11
7566.4821201387
 21
4778.8559601294
 31
0.0
  0
LINE
  5
41E
330
1F
100
AcDbEntity
  8
0
  6
Continuous
 62
     7
370
    25
100
AcDbLine
 10
7561.5632973828
 20
4783.8559601294
 30
0.0
 11
7566.4821201387
 21
4783.8559601294
 31
0.0
  0
LINE
  5
41F
330
1F
100
AcDbEntity
  8
0
  6
Continuous
 62
     7
370
    25
100
AcDbLine
 10
7566.4821201387
 20
4783.8559601294
 30
0.0
 11
7566.4821201387
 21
4781.8559601294
 31
0.0
  0
ARC
  5
420
330
1F
100
AcDbEntity
  8
0
  6
Continuous
 62
     7
370
    25
100
AcDbCircle
 10
7561.5796668016
 20
4781.8720637833
 30
0.0
 40
1.983963878170381
100
AcDbArc
 50
90.4727451246
 51
180.4650697254
  0
LINE
  5
421
330
1F
100
AcDbEntity
  8
0
  6
Continuous
 62
     7
370
    25
100
AcDbLine
 10
7566.4821201387
 20
4783.8559601294
 30
0.0
 11
7580.6153846154
 21
4783.8559601294
 31
0.0
  0
LINE
  5
422
330
1F
100
AcDbEntity
  8
0
  6
Continuous
 62
     7
370
    25
100
AcDbLine
 10
7586.6153846154
 20
4783.8559601294
 30
0.0
 11
7600.7486490921
 21
4783.8559601294
 31
0.0
  0
LINE
  5
423
330
1F
100
AcDbEntity
  8
0
  6
Continuous
 62
     7
370
    25
100
AcDbLine
 10
7600.7486490921
 20
4783.8559601294
 30
0.0
 11
7600.7486490921
 21
4781.8559601294
 31
0.0
  0
LINE
  5
424
330
1F
100
AcDbEntity
  8
0
  6
Continuous
 62
     7
370
    25
100
AcDbLine
 10
7600.7486490921
 20
4781.8559601294
 30
0.0
 11
7600.7486490921
 21
4778.8559601294
 31
0.0
  0
LINE
  5
425
330
1F
100
AcDbEntity
  8
0
  6
Continuous
 62
     7
370
    25
100
AcDbLine
 10
7566.4821201387
 20
4778.8559601294
 30
0.0
 11
7580.6153846154
 21
4778.8559601294
 31
0.0
  0
LINE
  5
426
330
1F
100
AcDbEntity
  8
0
  6
Continuous
 62
     7
370
    25
100
AcDbLine
 10
7586.6153846154
 20
4778.8559601294
 30
0.0
 11
7600.7486490921
 21
4778.8559601294
 31
0.0
  0
LINE
  5
427
330
1F
100
AcDbEntity
  8
0
  6
Continuous
 62
     7
370
    25
100
AcDbLine
 10
7600.7486490921
 20
4783.8559601294
 30
0.0
 11
7605.667471848
 21
4783.8559601294
 31
0.0
  0
ARC
  5
428
330
1F
100
AcDbEntity
  8
0
  6
Continuous
 62
     7
370
    25
100
AcDbCircle
 10
7605.6511024292
 20
4781.8720637833
 30
0.0
 40
1.98396387817129
100
AcDbArc
 50
359.5349302747
 51
89.5272548754
  0
LINE
  5
429
330
1F
100
AcDbEntity
  8
0
  6
Continuous
 62
     7
370
    25
100
AcDbLine
 10
7607.6350009504
 20
4781.8559601294
 30
0.0
 11
7600.7486490921
 21
4781.8559601294
 31
0.0
  0
LINE
  5
42A
330
1F
100
AcDbEntity
  8
0
  6
Continuous
 62
     7
370
    25
100
AcDbLine
 10
7607.6350009504
 20
4781.8559601294
 30
0.0
 11
7607.6350009504
 21
4778.8559601294
 31
0.0
  0
LINE
  5
42B
330
1F
100
AcDbEntity
  8
0
  6
Continuous
 62
     7
370
    25
100
AcDbLine
 10
7600.7486490921
 20
4778.8559601294
 30
0.0
 11
7607.6350009504
 21
4778.8559601294
 31
0.0
  0
LWPOLYLINE
  5
42C
330
1F
100
AcDbEntity
  8
0
  6
Continuous
 62
     7
370
    25
100
AcDbPolyline
 90
        3
 70
   128
 43
0.0
 10
7601.3884254189
 20
4731.2573456479
 10
7601.05643001
 20
4731.0369170266
 10
7600.6803794562
 20
4730.9715140466
  0
LWPOLYLINE
  5
42D
330
1F
100
AcDbEntity
  8
0
  6
Continuous
 62
     7
370
    25
100
AcDbPolyline
 90
        3
 70
   128
 43
0.0
 10
7565.8423438119
 20
4731.2573456479
 10
7566.1743392208
 20
4731.0369170266
 10
7566.5718807214
 20
4730.9677763258
  0
LINE
  5
42E
330
1F
100
AcDbEntity
  8
0
  6
Continuous
 62
     7
370
    25
100
AcDbLine
 10
7550.0711779609
 20
4781.8559601294
 30
0.0
 11
7550.0711779609
 21
4778.8559601294
 31
0.0
  0
LINE
  5
42F
330
1F
100
AcDbEntity
  8
0
  6
Continuous
 62
     7
370
    25
100
AcDbLine
 10
7559.5957682804
 20
4781.8559601294
 30
0.0
 11
7550.0711779609
 21
4781.8559601294
 31
0.0
  0
LINE
  5
430
330
1F
100
AcDbEntity
  8
0
  6
Continuous
 62
     7
370
    25
100
AcDbLine
 10
7550.0711779609
 20
4778.8559601294
 30
0.0
 11
7559.5957682804
 21
4778.8559601294
 31
0.0
  0
ARC
  5
431
330
1F
100
AcDbEntity
  8
0
  6
Continuous
 62
     7
370
    25
100
AcDbCircle
 10
7551.8291122594
 20
4782.1205477112
 30
0.0
 40
1.77773439702241
100
AcDbArc
 50
102.5271579556
 51
188.5593696972
  0
LINE
  5
432
330
1F
100
AcDbEntity
  8
0
  6
Continuous
 62
     7
370
    25
100
AcDbLine
 10
7551.4435174914
 20
4783.8559601294
 30
0.0
 11
7561.5632973828
 21
4783.8559601294
 31
0.0
  0
ARC
  5
433
330
1F
100
AcDbEntity
  8
0
  6
Continuous
 62
     7
370
    25
100
AcDbCircle
 10
7615.3986043148
 20
4782.1184530706
 30
0.0
 40
1.780443090941187
100
AcDbArc
 50
351.5219073503
 51
77.3915649969
  0
LINE
  5
434
330
1F
100
AcDbEntity
  8
0
  6
Continuous
 62
     7
370
    25
100
AcDbLine
 10
7617.1595912699
 20
4781.8559601294
 30
0.0
 11
7607.6350009504
 21
4781.8559601294
 31
0.0
  0
LINE
  5
435
330
1F
100
AcDbEntity
  8
0
  6
Continuous
 62
     7
370
    25
100
AcDbLine
 10
7605.667471848
 20
4783.8559601294
 30
0.0
 11
7615.7872517393
 21
4783.8559601294
 31
0.0
  0
LINE
  5
436
330
1F
100
AcDbEntity
  8
0
  6
Continuous
 62
     7
370
    25
100
AcDbLine
 10
7617.1595912699
 20
4781.8559601294
 30
0.0
 11
7617.1595912699
 21
4778.8559601294
 31
0.0
  0
LINE
  5
437
330
1F
100
AcDbEntity
  8
0
  6
Continuous
 62
     7
370
    25
100
AcDbLine
 10
7607.6350009504
 20
4778.8559601294
 30
0.0
 11
7617.1595912699
 21
4778.8559601294
 31
0.0
  0
LINE
  5
438
330
1F
100
AcDbEntity
  8
0
  6
Continuous
 62
     7
370
    25
100
AcDbLine
 10
7552.5138948899
 20
4740.5487952442
 30
0.0
 11
7552.2910914821
 21
4778.8559601294
 31
0.0
  0
LINE
  5
439
330
1F
100
AcDbEntity
  8
0
  6
Continuous
 62
     7
370
    25
100
AcDbLine
 10
7614.7168743409
 20
4740.5487952442
 30
0.0
 11
7614.9396777487
 21
4778.8559601294
 31
0.0
  0
LINE
  5
43A
330
1F
100
AcDbEntity
  8
0
  6
Continuous
 62
     7
370
    25
100
AcDbLine
 10
7576.3861215452
 20
4766.8559601294
 30
0.0
 11
7590.8446476856
 21
4766.8559601294
 31
0.0
  0
LINE
  5
43B
330
1F
100
AcDbEntity
  8
0
  6
Continuous
 62
     7
370
    25
100
AcDbLine
 10
7589.3888873073
 20
4786.8559601294
 30
0.0
 11
7625.3653846154
 21
4786.8559601294
 31
0.0
  0
LINE
  5
43C
330
1F
100
AcDbEntity
  8
0
  6
Continuous
 62
     7
370
    25
100
AcDbLine
 10
7541.8653846154
 20
4786.8559601294
 30
0.0
 11
7577.8418819235
 21
4786.8559601294
 31
0.0
  0
LINE
  5
43D
330
1F
100
AcDbEntity
  8
0
  6
Continuous
 62
     7
370
    25
100
AcDbLine
 10
7615.7872517393
 20
4783.8559601294
 30
0.0
 11
7630.6153846154
 21
4783.8559601294
 31
0.0
  0
LINE
  5
43E
330
1F
100
AcDbEntity
  8
0
  6
Continuous
 62
     7
370
    25
100
AcDbLine
 10
7537.6153547219
 20
4783.8559601294
 30
0.0
 11
7551.4435174914
 21
4783.8559601294
 31
0.0
  0
LINE
  5
43F
330
1F
100
AcDbEntity
  8
0
  6
Continuous
 62
     7
370
    25
100
AcDbLine
 10
7617.1595912699
 20
4778.8559601294
 30
0.0
 11
7632.6153846154
 21
4778.8559601294
 31
0.0
  0
LINE
  5
440
330
1F
100
AcDbEntity
  8
0
  6
Continuous
 62
     7
370
    25
100
AcDbLine
 10
7534.6153846154
 20
4778.8559601294
 30
0.0
 11
7535.6153222289
 21
4778.8559601294
 31
0.0
  0
LINE
  5
441
330
1F
100
AcDbEntity
  8
0
  6
Continuous
 62
     7
370
    25
100
AcDbLine
 10
7537.6153846154
 20
4778.8559601294
 30
0.0
 11
7550.0711779609
 21
4778.8559601294
 31
0.0
  0
LINE
  5
442
330
1F
100
AcDbEntity
  8
0
  6
Continuous
 62
     7
370
    25
100
AcDbLine
 10
7572.3561295976
 20
4711.6727214912
 30
0.0
 11
7572.7571326122
 21
4726.98640879
 31
0.0
  0
ARC
  5
443
330
1F
100
AcDbEntity
  8
0
  6
Continuous
 62
     7
370
    25
100
AcDbCircle
 10
7567.1355063913
 20
4760.084093223
 30
0.0
 40
48.69205088733789
100
AcDbArc
 50
263.8450785085
 51
276.1549214915
  0
ARC
  5
444
330
1F
100
AcDbEntity
  8
0
  6
Continuous
 62
     7
370
    25
100
AcDbCircle
 10
7600.0952628394
 20
4760.08409314
 30
0.0
 40
48.69205080479676
100
AcDbArc
 50
263.845078498
 51
276.154921502
  0
LINE
  5
445
330
1F
100
AcDbEntity
  8
0
  6
Continuous
 62
     7
370
    25
100
AcDbLine
 10
7594.8746396331
 20
4711.6727214912
 30
0.0
 11
7594.4736366186
 21
4726.98640879
 31
0.0
  0
LINE
  5
446
330
1F
100
AcDbEntity
  8
0
  6
Continuous
 62
     7
370
    25
100
AcDbLine
 10
7573.0538917787
 20
4738.4238722706
 30
0.0
 11
7573.9245394718
 21
4763.3559601294
 31
0.0
  0
LINE
  5
447
330
1F
100
AcDbEntity
  8
0
  6
Continuous
 62
     7
370
    25
100
AcDbLine
 10
7594.1768774521
 20
4738.4238722706
 30
0.0
 11
7593.306229759
 21
4763.3559601294
 31
0.0
  0
LWPOLYLINE
  5
448
330
1F
100
AcDbEntity
  8
0
  6
Continuous
 62
     7
370
    25
100
AcDbPolyline
 90
        6
 70
   128
 43
0.0
 10
7565.3585283228
 20
4704.8559601294
 10
7564.0809107004
 20
4705.3485227211
 10
7562.9763910403
 20
4706.7858674521
 10
7562.212372907
 20
4708.9948547206
 10
7561.9994621108
 20
4710.298573673
 10
7561.914883185
 20
4711.6727214912
  0
ARC
  5
449
330
1F
100
AcDbEntity
  8
0
  6
Continuous
 62
     7
370
    25
100
AcDbCircle
 10
7565.3585283228
 20
4711.8559601294
 30
0.0
 40
7.000000000002253
100
AcDbArc
 50
270.0
 51
358.5
  0
LWPOLYLINE
  5
44A
330
1F
100
AcDbEntity
  8
0
  6
Continuous
 62
     7
370
    25
100
AcDbPolyline
 90
        6
 70
   128
 43
0.0
 10
7605.3158860457
 20
4711.6727214912
 10
7605.2313098459
 20
4710.2985919817
 10
7605.0184031299
 20
4708.9948775729
 10
7604.2543781905
 20
4706.7858674521
 10
7603.1498585304
 20
4705.3485227211
 10
7601.872240908
 20
4704.8559601294
  0
ARC
  5
44B
330
1F
100
AcDbEntity
  8
0
  6
Continuous
 62
     7
370
    25
100
AcDbCircle
 10
7601.872240908
 20
4711.8559601294
 30
0.0
 40
7.000000000000909
100
AcDbArc
 50
181.5
 51
270.0
  0
LINE
  5
44C
330
1F
100
AcDbEntity
  8
0
  6
Continuous
 62
     7
370
    25
100
AcDbLine
 10
7565.3585283228
 20
4704.8559601294
 30
0.0
 11
7558.372240908
 21
4704.8559601294
 31
0.0
  0
LINE
  5
44D
330
1F
100
AcDbEntity
  8
0
  6
Continuous
 62
     7
370
    25
100
AcDbLine
 10
7608.8585283228
 20
4704.8559601294
 30
0.0
 11
7601.872240908
 21
4704.8559601294
 31
0.0
  0
LINE
  5
44E
330
1F
100
AcDbEntity
  8
0
  6
Continuous
 62
     7
370
    25
100
AcDbLine
 10
7572.3561295976
 20
4711.6727214912
 30
0.0
 11
7573.7500831189
 21
4711.6727214912
 31
0.0
  0
LWPOLYLINE
  5
44F
330
1F
100
AcDbEntity
  8
0
  6
Continuous
 62
     7
370
    25
100
AcDbPolyline
 90
        9
 70
   128
 43
0.0
 10
7568.8020318055
 20
4704.8559601294
 10
7569.7517877202
 20
4704.9860309154
 10
7570.6662477782
 20
4705.3714094423
 10
7571.5114278257
 20
4705.9977738562
 10
7572.2559183675
 20
4706.8418465254
 10
7572.8720518407
 20
4707.8722591082
 10
7573.3369308267
 20
4709.0507182977
 10
7573.6332789898
 20
4710.3334289185
 10
7573.7500831189
 20
4711.6727214912
  0
LINE
  5
450
330
1F
100
AcDbEntity
  8
0
  6
Continuous
 62
     7
370
    25
100
AcDbLine
 10
7568.8020318055
 20
4704.8559601294
 30
0.0
 11
7565.3585283228
 21
4704.8559601294
 31
0.0
  0
LINE
  5
451
330
1F
100
AcDbEntity
  8
0
  6
Continuous
 62
     7
370
    25
100
AcDbLine
 10
7593.4806861118
 20
4711.6727214912
 30
0.0
 11
7594.8746396331
 21
4711.6727214912
 31
0.0
  0
LWPOLYLINE
  5
452
330
1F
100
AcDbEntity
  8
0
  6
Continuous
 62
     7
370
    25
100
AcDbPolyline
 90
        9
 70
   128
 43
0.0
 10
7593.4806861118
 20
4711.6727214912
 10
7593.597490241
 20
4710.3334289185
 10
7593.8938384041
 20
4709.0507182977
 10
7594.3587173901
 20
4707.8722591082
 10
7594.9748508633
 20
4706.8418465254
 10
7595.7193414051
 20
4705.9977738562
 10
7596.5645214525
 20
4705.3714094423
 10
7597.4789815106
 20
4704.9860309154
 10
7598.4287374253
 20
4704.8559601294
  0
LINE
  5
453
330
1F
100
AcDbEntity
  8
0
  6
Continuous
 62
     7
370
    25
100
AcDbLine
 10
7601.872240908
 20
4704.8559601294
 30
0.0
 11
7598.4287374253
 21
4704.8559601294
 31
0.0
  0
LINE
  5
454
330
1F
100
AcDbEntity
  8
0
  6
Continuous
 62
     7
370
    25
100
AcDbLine
 10
7573.7500831189
 20
4711.6727214912
 30
0.0
 11
7577.4927238061
 21
4711.6727214912
 31
0.0
  0
LINE
  5
455
330
1F
100
AcDbEntity
  8
0
  6
Continuous
 62
     7
370
    25
100
AcDbLine
 10
7589.7380454247
 20
4711.6727214912
 30
0.0
 11
7593.4806861118
 21
4711.6727214912
 31
0.0
  0
LWPOLYLINE
  5
456
330
1F
100
AcDbEntity
  8
0
  6
Continuous
 62
     7
370
    25
100
AcDbPolyline
 90
        9
 70
   128
 43
0.0
 10
7572.5446724926
 20
4704.8559601294
 10
7573.4944284073
 20
4704.9860309154
 10
7574.4088884653
 20
4705.3714094423
 10
7575.2540685128
 20
4705.9977738562
 10
7575.9985590546
 20
4706.8418465254
 10
7576.6146925278
 20
4707.8722591082
 10
7577.0795715138
 20
4709.0507182977
 10
7577.3759196769
 20
4710.3334289185
 10
7577.4927238061
 20
4711.6727214912
  0
LINE
  5
457
330
1F
100
AcDbEntity
  8
0
  6
Continuous
 62
     7
370
    25
100
AcDbLine
 10
7572.5446724926
 20
4704.8559601294
 30
0.0
 11
7568.8020318055
 21
4704.8559601294
 31
0.0
  0
LWPOLYLINE
  5
458
330
1F
100
AcDbEntity
  8
0
  6
Continuous
 62
     7
370
    25
100
AcDbPolyline
 90
        9
 70
   128
 43
0.0
 10
7589.7380454247
 20
4711.6727214912
 10
7589.8548495539
 20
4710.3334289185
 10
7590.1511977169
 20
4709.0507182977
 10
7590.616076703
 20
4707.8722591082
 10
7591.2322101762
 20
4706.8418465254
 10
7591.9767007179
 20
4705.9977738562
 10
7592.8218807654
 20
4705.3714094423
 10
7593.7363408235
 20
4704.9860309154
 10
7594.6860967382
 20
4704.8559601294
  0
LINE
  5
459
330
1F
100
AcDbEntity
  8
0
  6
Continuous
 62
     7
370
    25
100
AcDbLine
 10
7598.4287374253
 20
4704.8559601294
 30
0.0
 11
7594.6860967382
 21
4704.8559601294
 31
0.0
  0
LINE
  5
45A
330
1F
100
AcDbEntity
  8
0
  6
Continuous
 62
     7
370
    25
100
AcDbLine
 10
7577.4927238061
 20
4711.6727214912
 30
0.0
 11
7580.8580253025
 21
4711.6727214912
 31
0.0
  0
LINE
  5
45B
330
1F
100
AcDbEntity
  8
0
  6
Continuous
 62
     7
370
    25
100
AcDbLine
 10
7586.3727439283
 20
4711.6727214912
 30
0.0
 11
7589.7380454247
 21
4711.6727214912
 31
0.0
  0
LINE
  5
45C
330
1F
100
AcDbEntity
  8
0
  6
Continuous
 62
     7
370
    25
100
AcDbLine
 10
7580.8580253025
 20
4704.8559601294
 30
0.0
 11
7580.8580253025
 21
4711.6727214912
 31
0.0
  0
LINE
  5
45D
330
1F
100
AcDbEntity
  8
0
  6
Continuous
 62
     7
370
    25
100
AcDbLine
 10
7580.8580253025
 20
4704.8559601294
 30
0.0
 11
7572.5446724926
 21
4704.8559601294
 31
0.0
  0
LINE
  5
45E
330
1F
100
AcDbEntity
  8
0
  6
Continuous
 62
     7
370
    25
100
AcDbLine
 10
7586.3727439283
 20
4711.6727214912
 30
0.0
 11
7586.3727439283
 21
4704.8559601294
 31
0.0
  0
LINE
  5
45F
330
1F
100
AcDbEntity
  8
0
  6
Continuous
 62
     7
370
    25
100
AcDbLine
 10
7594.6860967382
 20
4704.8559601294
 30
0.0
 11
7586.3727439283
 21
4704.8559601294
 31
0.0
  0
LINE
  5
460
330
1F
100
AcDbEntity
  8
0
  6
Continuous
 62
     7
370
    25
100
AcDbLine
 10
7580.8580253025
 20
4711.6727214912
 30
0.0
 11
7586.3727439283
 21
4711.6727214912
 31
0.0
  0
LINE
  5
461
330
1F
100
AcDbEntity
  8
0
  6
Continuous
 62
     7
370
    25
100
AcDbLine
 10
7586.3727439283
 20
4704.8559601294
 30
0.0
 11
7580.8580253025
 21
4704.8559601294
 31
0.0
  0
LINE
  5
462
330
1F
100
AcDbEntity
  8
0
  6
Continuous
 62
     7
370
    25
100
AcDbLine
 10
7518.7079073273
 20
4694.6559601294
 30
0.0
 11
7518.7079073273
 21
4687.6559601294
 31
0.0
  0
LINE
  5
463
330
1F
100
AcDbEntity
  8
0
  6
Continuous
 62
     7
370
    25
100
AcDbLine
 10
7528.5228619035
 20
4694.6559601294
 30
0.0
 11
7528.5228619035
 21
4687.6559601294
 31
0.0
  0
LINE
  5
464
330
1F
100
AcDbEntity
  8
0
  6
Continuous
 62
     7
370
    25
100
AcDbLine
 10
7518.7079073273
 20
4687.6559601294
 30
0.0
 11
7528.5228619035
 21
4687.6559601294
 31
0.0
  0
LINE
  5
465
330
1F
100
AcDbEntity
  8
0
  6
Continuous
 62
     7
370
    25
100
AcDbLine
 10
7518.7079073273
 20
4694.6559601294
 30
0.0
 11
7528.5228619035
 21
4694.6559601294
 31
0.0
  0
LINE
  5
466
330
1F
100
AcDbEntity
  8
0
  6
Continuous
 62
     7
370
    25
100
AcDbLine
 10
7513.8004300392
 20
4694.6559601294
 30
0.0
 11
7513.8004300392
 21
4687.6559601294
 31
0.0
  0
LINE
  5
467
330
1F
100
AcDbEntity
  8
0
  6
Continuous
 62
     7
370
    25
100
AcDbLine
 10
7513.8004300392
 20
4687.6559601294
 30
0.0
 11
7518.7079073273
 21
4687.6559601294
 31
0.0
  0
LINE
  5
468
330
1F
100
AcDbEntity
  8
0
  6
Continuous
 62
     7
370
    25
100
AcDbLine
 10
7513.8004300392
 20
4694.6559601294
 30
0.0
 11
7518.7079073273
 21
4694.6559601294
 31
0.0
  0
LINE
  5
469
330
1F
100
AcDbEntity
  8
0
  6
Continuous
 62
     7
370
    25
100
AcDbLine
 10
7533.4303391916
 20
4694.6559601294
 30
0.0
 11
7533.4303391916
 21
4687.6559601294
 31
0.0
  0
LINE
  5
46A
330
1F
100
AcDbEntity
  8
0
  6
Continuous
 62
     7
370
    25
100
AcDbLine
 10
7528.5228619035
 20
4687.6559601294
 30
0.0
 11
7533.4303391916
 21
4687.6559601294
 31
0.0
  0
LINE
  5
46B
330
1F
100
AcDbEntity
  8
0
  6
Continuous
 62
     7
370
    25
100
AcDbLine
 10
7528.5228619035
 20
4694.6559601294
 30
0.0
 11
7533.4303391916
 21
4694.6559601294
 31
0.0
  0
LINE
  5
46C
330
1F
100
AcDbEntity
  8
0
  6
Continuous
 62
     7
370
    25
100
AcDbLine
 10
7519.6153846154
 20
4774.6559601294
 30
0.0
 11
7527.6153846154
 21
4774.6559601294
 31
0.0
  0
LINE
  5
46D
330
1F
100
AcDbEntity
  8
0
  6
Continuous
 62
     7
370
    25
100
AcDbLine
 10
7680.4303391916
 20
4694.6559601294
 30
0.0
 11
7680.4303391916
 21
4689.6559601294
 31
0.0
  0
LINE
  5
46E
330
1F
100
AcDbEntity
  8
0
  6
Continuous
 62
     7
370
    25
100
AcDbLine
 10
7675.6153846154
 20
4694.6559601294
 30
0.0
 11
7680.4303391916
 21
4694.6559601294
 31
0.0
  0
LINE
  5
46F
330
1F
100
AcDbEntity
  8
0
  6
Continuous
 62
     7
370
    25
100
AcDbLine
 10
7660.8004300392
 20
4694.6559601294
 30
0.0
 11
7660.8004300392
 21
4689.6559601294
 31
0.0
  0
LINE
  5
470
330
1F
100
AcDbEntity
  8
0
  6
Continuous
 62
     7
370
    25
100
AcDbLine
 10
7660.8004300392
 20
4694.6559601294
 30
0.0
 11
7665.6153846154
 21
4694.6559601294
 31
0.0
  0
LINE
  5
471
330
1F
100
AcDbEntity
  8
0
  6
Continuous
 62
     7
370
    25
100
AcDbLine
 10
7538.6153846154
 20
4689.6559601294
 30
0.0
 11
7538.6153846154
 21
4687.6559601294
 31
0.0
  0
LINE
  5
472
330
1F
100
AcDbEntity
  8
0
  6
Continuous
 62
     7
370
    25
100
AcDbLine
 10
7508.6153846154
 20
4689.6559601294
 30
0.0
 11
7513.8004300392
 21
4689.6559601294
 31
0.0
  0
LINE
  5
473
330
1F
100
AcDbEntity
  8
0
  6
Continuous
 62
     7
370
    25
100
AcDbLine
 10
7533.4303391916
 20
4689.6559601294
 30
0.0
 11
7538.6153846154
 21
4689.6559601294
 31
0.0
  0
LINE
  5
474
330
1F
100
AcDbEntity
  8
0
  6
Continuous
 62
     7
370
    25
100
AcDbLine
 10
7508.6153846154
 20
4687.6559601294
 30
0.0
 11
7513.8004300392
 21
4687.6559601294
 31
0.0
  0
LINE
  5
475
330
1F
100
AcDbEntity
  8
0
  6
Continuous
 62
     7
370
    25
100
AcDbLine
 10
7533.4303391916
 20
4687.6559601294
 30
0.0
 11
7538.6153846154
 21
4687.6559601294
 31
0.0
  0
LINE
  5
476
330
1F
100
AcDbEntity
  8
0
  6
Continuous
 62
     7
370
    25
100
AcDbLine
 10
7508.6153846154
 20
4689.6559601294
 30
0.0
 11
7508.6153846154
 21
4687.6559601294
 31
0.0
  0
LINE
  5
477
330
1F
100
AcDbEntity
  8
0
  6
Continuous
 62
     7
370
    25
100
AcDbLine
 10
7655.6153846154
 20
4689.6559601294
 30
0.0
 11
7655.6153846154
 21
4687.6559601294
 31
0.0
  0
LINE
  5
478
330
1F
100
AcDbEntity
  8
0
  6
Continuous
 62
     7
370
    25
100
AcDbLine
 10
7655.6153846154
 20
4689.6559601294
 30
0.0
 11
7685.6153846154
 21
4689.6559601294
 31
0.0
  0
LINE
  5
479
330
1F
100
AcDbEntity
  8
0
  6
Continuous
 62
     7
370
    25
100
AcDbLine
 10
7685.6153846154
 20
4689.6559601294
 30
0.0
 11
7685.6153846154
 21
4687.6559601294
 31
0.0
  0
LINE
  5
47A
330
1F
100
AcDbEntity
  8
0
  6
Continuous
 62
     7
370
    25
100
AcDbLine
 10
7655.6153846154
 20
4687.6559601294
 30
0.0
 11
7685.6153846154
 21
4687.6559601294
 31
0.0
  0
LINE
  5
47B
330
1F
100
AcDbEntity
  8
0
  6
Continuous
 62
     7
370
    25
100
AcDbLine
 10
7666.6153846154
 20
4774.6559601294
 30
0.0
 11
7674.6153846154
 21
4774.6559601294
 31
0.0
  0
LINE
  5
47C
330
1F
100
AcDbEntity
  8
0
  6
Continuous
 62
     8
370
    25
100
AcDbLine
 10
7533.6153846154
 20
4808.6559601294
 30
0.0
 11
7533.6153846154
 21
4806.604418798
 31
0.0
  0
LINE
  5
47D
330
1F
100
AcDbEntity
  8
0
  6
Continuous
 62
     8
370
    25
100
AcDbLine
 10
7633.6153846154
 20
4808.6559601294
 30
0.0
 11
7633.6153846154
 21
4806.604418798
 31
0.0
  0
LINE
  5
47E
330
1F
100
AcDbEntity
  8
0
  6
Continuous
 62
     8
370
    25
100
AcDbLine
 10
7533.6153846154
 20
4802.3973608948
 30
0.0
 11
7533.6153846154
 21
4792.6559601294
 31
0.0
  0
LINE
  5
47F
330
1F
100
AcDbEntity
  8
0
  6
Continuous
 62
     8
370
    25
100
AcDbLine
 10
7633.6153846154
 20
4802.3973608948
 30
0.0
 11
7633.6153846154
 21
4792.6559601294
 31
0.0
  0
LINE
  5
480
330
1F
100
AcDbEntity
  8
0
  6
Continuous
 62
     8
370
    25
100
AcDbLine
 10
7544.3131584828
 20
4787.3796340557
 30
0.0
 11
7577.8418819235
 21
4787.3796340557
 31
0.0
  0
LINE
  5
481
330
1F
100
AcDbEntity
  8
0
  6
Continuous
 62
     8
370
    25
100
AcDbLine
 10
7589.3888873073
 20
4787.3796340557
 30
0.0
 11
7622.917610748
 21
4787.3796340557
 31
0.0
  0
LINE
  5
482
330
1F
100
AcDbEntity
  8
0
  6
Continuous
 62
     8
370
    25
100
AcDbLine
 10
7544.552269868
 20
4787.7937871235
 30
0.0
 11
7577.8418819235
 21
4787.7937871235
 31
0.0
  0
LINE
  5
483
330
1F
100
AcDbEntity
  8
0
  6
Continuous
 62
     8
370
    25
100
AcDbLine
 10
7589.3888873073
 20
4787.7937871235
 30
0.0
 11
7622.6784993628
 21
4787.7937871235
 31
0.0
  0
ARC
  5
484
330
1F
100
AcDbEntity
  8
0
  6
Continuous
 62
     8
370
    25
100
AcDbCircle
 10
7583.6157177822
 20
4751.8624772024
 30
0.0
 40
17.49966683632498
100
AcDbArc
 50
269.9989091761
 51
359.9989091346
  0
ARC
  5
485
330
1F
100
AcDbEntity
  8
0
  6
Continuous
 62
     8
370
    25
100
AcDbCircle
 10
7583.6150505435
 20
4751.8624753829
 30
0.0
 40
17.49966501687541
100
AcDbArc
 50
180.0011153103
 51
270.0010937871
  0
LINE
  5
486
330
1F
100
AcDbEntity
  8
0
  6
Continuous
 62
     8
370
    25
100
AcDbLine
 10
7600.7486490921
 20
4781.8559601294
 30
0.0
 11
7586.6153846154
 21
4781.8559601294
 31
0.0
  0
LINE
  5
487
330
1F
100
AcDbEntity
  8
0
  6
Continuous
 62
     8
370
    25
100
AcDbLine
 10
7580.6153846154
 20
4781.8559601294
 30
0.0
 11
7566.4821201387
 21
4781.8559601294
 31
0.0
  0
LINE
  5
488
330
1F
100
AcDbEntity
  8
0
  6
Continuous
 62
     8
370
    25
100
AcDbLine
 10
7605.4433831826
 20
4767.5982718737
 30
0.0
 11
7605.5402106153
 21
4778.8559601294
 31
0.0
  0
LINE
  5
489
330
1F
100
AcDbEntity
  8
0
  6
Continuous
 62
     8
370
    25
100
AcDbLine
 10
7599.6267453172
 20
4773.4470133239
 30
0.0
 11
7599.6267453172
 21
4778.8559601294
 31
0.0
  0
LINE
  5
48A
330
1F
100
AcDbEntity
  8
0
  6
Continuous
 62
     8
370
    25
100
AcDbLine
 10
7561.7873860482
 20
4767.5982718737
 30
0.0
 11
7561.6905586155
 21
4778.8559601294
 31
0.0
  0
LINE
  5
48B
330
1F
100
AcDbEntity
  8
0
  6
Continuous
 62
     8
370
    25
100
AcDbLine
 10
7567.6040239136
 20
4773.4470133239
 30
0.0
 11
7567.6040239136
 21
4778.8559601294
 31
0.0
  0
ARC
  5
48C
330
1F
100
AcDbEntity
  8
0
  6
Continuous
 62
     8
370
    25
100
AcDbCircle
 10
7599.1757775207
 20
4736.6575084
 30
0.0
 40
5.835886262670978
100
AcDbArc
 50
292.2807405458
 51
346.2292893367
  0
ARC
  5
48D
330
1F
100
AcDbEntity
  8
0
  6
Continuous
 62
     8
370
    25
100
AcDbCircle
 10
7568.0565912716
 20
4736.659106146
 30
0.0
 40
5.837971247906305
100
AcDbArc
 50
193.7452696728
 51
247.7106782336
  0
ARC
  5
48E
330
1F
100
AcDbEntity
  8
0
  6
Continuous
 62
     8
370
    25
100
AcDbCircle
 10
7624.7623171162
 20
4692.7349014776
 30
0.0
 40
48.85774613796228
100
AcDbArc
 50
101.8649724379
 51
111.5369123433
  0
LWPOLYLINE
  5
48F
330
1F
100
AcDbEntity
  8
0
  6
Continuous
 62
     8
370
    25
100
AcDbPolyline
 90
        8
 70
   128
 43
0.0
 10
7614.7168743409
 20
4740.5487952442
 10
7614.7526656524
 20
4739.076285023
 10
7614.5736393519
 20
4737.6738552218
 10
7614.1879763676
 20
4736.4055923872
 10
7613.6133002616
 20
4735.3294520655
 10
7612.8758718899
 20
4734.4946104198
 10
7612.0093893653
 20
4733.9392170373
 10
7611.332145095
 20
4733.727998719
  0
ARC
  5
490
330
1F
100
AcDbEntity
  8
0
  6
Continuous
 62
     8
370
    25
100
AcDbCircle
 10
7542.5509604762
 20
4693.0094402431
 30
0.0
 40
48.5721147991014
100
AcDbArc
 50
68.5846849951
 51
78.1636904354
  0
LWPOLYLINE
  5
491
330
1F
100
AcDbEntity
  8
0
  6
Continuous
 62
     8
370
    25
100
AcDbPolyline
 90
        8
 70
   128
 43
0.0
 10
7552.5138948899
 20
4740.5487952442
 10
7552.4781035784
 20
4739.076285023
 10
7552.6571298789
 20
4737.6738552218
 10
7553.0427928632
 20
4736.4055923872
 10
7553.6174689692
 20
4735.3294520655
 10
7554.3548973409
 20
4734.4946104198
 10
7555.2213798655
 20
4733.9392170373
 10
7555.8903663461
 20
4733.7295684168
  0
LWPOLYLINE
  5
492
330
1F
100
AcDbEntity
  8
0
  6
Continuous
 62
     8
370
    25
100
AcDbPolyline
 90
        7
 70
   128
 43
0.0
 10
7614.7168743409
 20
4740.5487952442
 10
7620.0280338247
 20
4741.5919037546
 10
7624.4360041054
 20
4742.973901828
 10
7627.5696083456
 20
4744.6176198531
 10
7629.5802337201
 20
4746.6179692691
 10
7630.3466787751
 20
4748.8969332891
 10
7630.2891694746
 20
4749.2104277921
  0
LWPOLYLINE
  5
493
330
1F
100
AcDbEntity
  8
0
  6
Continuous
 62
     8
370
    25
100
AcDbPolyline
 90
       11
 70
   128
 43
0.0
 10
7536.9030828679
 20
4749.1894432864
 10
7536.8818882726
 20
4748.9404572632
 10
7537.1542570121
 20
4747.6082371784
 10
7537.8558026133
 20
4746.3223526508
 10
7538.9837703664
 20
4745.1376303705
 10
7540.3649367085
 20
4744.1618296725
 10
7542.0843633517
 20
4743.2750746103
 10
7544.2079114456
 20
4742.453588767
 10
7546.6682092334
 20
4741.7268648056
 10
7549.4303001481
 20
4741.0962841819
 10
7552.5138948899
 20
4740.5487952442
  0
LINE
  5
494
330
1F
100
AcDbEntity
  8
0
  6
Continuous
 62
     8
370
    25
100
AcDbLine
 10
7550.0711779609
 20
4781.8559601294
 30
0.0
 11
7537.6153417247
 21
4781.8559601294
 31
0.0
  0
LINE
  5
495
330
1F
100
AcDbEntity
  8
0
  6
Continuous
 62
     8
370
    25
100
AcDbLine
 10
7535.6153417246
 20
4781.8559601294
 30
0.0
 11
7534.6153846154
 21
4781.8559601294
 31
0.0
  0
LINE
  5
496
330
1F
100
AcDbEntity
  8
0
  6
Continuous
 62
     8
370
    25
100
AcDbLine
 10
7632.6153846154
 20
4781.8559601294
 30
0.0
 11
7617.1595912699
 21
4781.8559601294
 31
0.0
  0
LINE
  5
497
330
1F
100
AcDbEntity
  8
0
  6
Continuous
 62
     8
370
    25
100
AcDbLine
 10
7561.914883185
 20
4711.6727214912
 30
0.0
 11
7561.5476210723
 21
4732.5101232234
 31
0.0
  0
LINE
  5
498
330
1F
100
AcDbEntity
  8
0
  6
Continuous
 62
     8
370
    25
100
AcDbLine
 10
7605.3158860457
 20
4711.6727214912
 30
0.0
 11
7615.8561295976
 21
4711.6727214912
 31
0.0
  0
LINE
  5
499
330
1F
100
AcDbEntity
  8
0
  6
Continuous
 62
     8
370
    25
100
AcDbLine
 10
7551.3746396331
 20
4711.6727214912
 30
0.0
 11
7561.914883185
 21
4711.6727214912
 31
0.0
  0
LINE
  5
49A
330
1F
100
AcDbEntity
  8
0
  6
Continuous
 62
     8
370
    25
100
AcDbLine
 10
7605.3158860458
 20
4711.6727214913
 30
0.0
 11
7605.6832313318
 21
4732.5148422401
 31
0.0
  0
LINE
  5
49B
330
1F
100
AcDbEntity
  8
0
  6
Continuous
 62
     8
370
    25
100
AcDbLine
 10
7573.7500831189
 20
4711.6727214912
 30
0.0
 11
7574.0240330369
 21
4726.4678352829
 31
0.0
  0
LINE
  5
49C
330
1F
100
AcDbEntity
  8
0
  6
Continuous
 62
     8
370
    25
100
AcDbLine
 10
7593.4806861118
 20
4711.6727214912
 30
0.0
 11
7593.2067361939
 21
4726.4678352829
 31
0.0
  0
LINE
  5
49D
330
1F
100
AcDbEntity
  8
0
  6
Continuous
 62
     8
370
    25
100
AcDbLine
 10
7573.9351453494
 20
4737.7987112909
 30
0.0
 11
7574.5662231578
 21
4763.3559601294
 31
0.0
  0
LINE
  5
49E
330
1F
100
AcDbEntity
  8
0
  6
Continuous
 62
     8
370
    25
100
AcDbLine
 10
7593.2956238813
 20
4737.7987112909
 30
0.0
 11
7592.664546073
 21
4763.3559601294
 31
0.0
  0
LINE
  5
49F
330
1F
100
AcDbEntity
  8
0
  6
Continuous
 62
     8
370
    25
100
AcDbLine
 10
7578.042368073
 20
4735.7887447857
 30
0.0
 11
7578.7230774073
 21
4763.3559601294
 31
0.0
  0
LINE
  5
4A0
330
1F
100
AcDbEntity
  8
0
  6
Continuous
 62
     8
370
    25
100
AcDbLine
 10
7589.1884011577
 20
4735.7887447857
 30
0.0
 11
7588.5076918235
 21
4763.3559601294
 31
0.0
  0
LINE
  5
4A1
330
1F
100
AcDbEntity
  8
0
  6
Continuous
 62
     8
370
    25
100
AcDbLine
 10
7577.4927238061
 20
4711.6727214912
 30
0.0
 11
7577.7460216288
 21
4725.352485075
 31
0.0
  0
LINE
  5
4A2
330
1F
100
AcDbEntity
  8
0
  6
Continuous
 62
     8
370
    25
100
AcDbLine
 10
7589.7380454247
 20
4711.6727214912
 30
0.0
 11
7589.4847476019
 21
4725.352485075
 31
0.0
  0
LINE
  5
4A3
330
1F
100
AcDbEntity
  8
0
  6
Continuous
 62
     8
370
    25
100
AcDbLine
 10
7580.2722388649
 20
4735.1999637147
 30
0.0
 11
7580.2722388649
 21
4763.3559601294
 31
0.0
  0
LINE
  5
4A4
330
1F
100
AcDbEntity
  8
0
  6
Continuous
 62
     8
370
    25
100
AcDbLine
 10
7586.9585303659
 20
4735.1999637147
 30
0.0
 11
7586.9585303659
 21
4763.3559601294
 31
0.0
  0
LINE
  5
4A5
330
1F
100
AcDbEntity
  8
0
  6
Continuous
 62
     8
370
    25
100
AcDbLine
 10
7580.8580253025
 20
4711.6727214912
 30
0.0
 11
7580.8580253025
 21
4724.8479784703
 31
0.0
  0
LINE
  5
4A6
330
1F
100
AcDbEntity
  8
0
  6
Continuous
 62
     8
370
    25
100
AcDbLine
 10
7586.3727439283
 20
4711.6727214912
 30
0.0
 11
7586.3727439283
 21
4724.8479784703
 31
0.0
  0
ENDSEC
  0
SECTION
  2
OBJECTS
  0
DICTIONARY
  5
C
330
0
100
AcDbDictionary
281
     1
  3
ACAD_GROUP
350
D
  3
ACAD_LAYOUT
350
1A
  3
ACAD_MLINESTYLE
350
17
  3
ACAD_PLOTSETTINGS
350
19
  3
ACAD_PLOTSTYLENAME
350
E
  3
ACAD_SCALELIST
350
47
  3
DWGPROPS
350
4A7
  0
DICTIONARY
  5
D
102
{ACAD_REACTORS
330
C
102
}
330
C
100
AcDbDictionary
281
     1
  0
DICTIONARY
  5
1A
102
{ACAD_REACTORS
330
C
102
}
330
C
100
AcDbDictionary
281
     1
  3
Layout1
350
1E
  3
Layout2
350
26
  3
Model
350
22
  0
DICTIONARY
  5
17
102
{ACAD_REACTORS
330
C
102
}
330
C
100
AcDbDictionary
281
     1
  3
Standard
350
18
  0
DICTIONARY
  5
19
102
{ACAD_REACTORS
330
C
102
}
330
C
100
AcDbDictionary
281
     1
  0
ACDBDICTIONARYWDFLT
  5
E
102
{ACAD_REACTORS
330
C
102
}
330
C
100
AcDbDictionary
281
     1
  3
Normal
350
F
100
AcDbDictionaryWithDefault
340
F
  0
DICTIONARY
  5
47
102
{ACAD_REACTORS
330
C
102
}
330
C
100
AcDbDictionary
281
     1
  3
A0
350
48
  3
A1
350
49
  3
A2
350
4A
  3
A3
350
4B
  3
A4
350
4C
  3
A5
350
4D
  3
A6
350
4E
  3
A7
350
4F
  3
A8
350
50
  3
A9
350
51
  3
B0
350
52
  3
B1
350
53
  3
B2
350
54
  3
B3
350
55
  3
B4
350
56
  3
B5
350
57
  3
B6
350
58
  3
B7
350
59
  3
B8
350
5A
  3
B9
350
5B
  3
C0
350
5C
  3
C1
350
5D
  3
C2
350
5E
  3
C3
350
5F
  3
C4
350
60
  3
C5
350
61
  3
C6
350
62
  3
C7
350
63
  3
C8
350
64
  3
C9
350
65
  3
D0
350
66
  3
D1
350
67
  3
D2
350
68
  0
XRECORD
  5
4A7
102
{ACAD_REACTORS
330
C
102
}
330
C
100
AcDbXrecord
280
     1
  1
DWGPROPS COOKIE
  2

  3

  4

  6

  7

  8
radek.stransky
  9

300
=
301
=
302
=
303
=
304
=
305
=
306
=
307
=
308
=
309
=
 40
0.0
 41
2459157.423077708
 42
2459157.42307794
  1

 90
        0
  0
LAYOUT
  5
1E
102
{ACAD_REACTORS
330
1A
102
}
330
1A
100
AcDbPlotSettings
  1

  2
none_device
  4

  6

 40
0.0
 41
0.0
 42
0.0
 43
0.0
 44
0.0
 45
0.0
 46
0.0
 47
0.0
 48
0.0
 49
0.0
140
0.0
141
0.0
142
1.0
143
1.0
 70
   688
 72
     1
 73
     0
 74
     5
  7

 75
    16
147
1.0
148
0.0
149
0.0
100
AcDbLayout
  1
Layout1
 70
     1
 71
     1
 10
0.0
 20
0.0
 11
420.0
 21
297.0
 12
0.0
 22
0.0
 32
0.0
 14
1.0000000000E+20
 24
1.0000000000E+20
 34
1.0000000000E+20
 15
-1.0000000000E+20
 25
-1.0000000000E+20
 35
-1.0000000000E+20
146
0.0
 13
0.0
 23
0.0
 33
0.0
 16
1.0
 26
0.0
 36
0.0
 17
0.0
 27
1.0
 37
0.0
 76
     0
330
1B
  0
LAYOUT
  5
26
102
{ACAD_REACTORS
330
1A
102
}
330
1A
100
AcDbPlotSettings
  1

  2
none_device
  4

  6

 40
0.0
 41
0.0
 42
0.0
 43
0.0
 44
0.0
 45
0.0
 46
0.0
 47
0.0
 48
0.0
 49
0.0
140
0.0
141
0.0
142
1.0
143
1.0
 70
   688
 72
     1
 73
     0
 74
     5
  7

 75
    16
147
1.0
148
0.0
149
0.0
100
AcDbLayout
  1
Layout2
 70
     1
 71
     2
 10
0.0
 20
0.0
 11
0.0
 21
0.0
 12
0.0
 22
0.0
 32
0.0
 14
0.0
 24
0.0
 34
0.0
 15
0.0
 25
0.0
 35
0.0
146
0.0
 13
0.0
 23
0.0
 33
0.0
 16
1.0
 26
0.0
 36
0.0
 17
0.0
 27
1.0
 37
0.0
 76
     0
330
23
  0
LAYOUT
  5
22
102
{ACAD_REACTORS
330
1A
102
}
330
1A
100
AcDbPlotSettings
  1

  2
none_device
  4
Letter_(8.50_x_11.00_Inches)
  6

 40
6.35
 41
6.35
 42
6.35000508
 43
6.35000508
 44
215.9
 45
279.4
 46
0.0
 47
0.0
 48
0.0
 49
0.0
140
0.0
141
0.0
142
1.0
143
1.0
 70
  1712
 72
     1
 73
     0
 74
     0
  7

 75
     0
147
1.0
148
0.0
149
0.0
100
AcDbLayout
  1
Model
 70
     1
 71
     0
 10
0.0
 20
0.0
 11
20000.0
 21
10000.0
 12
0.0
 22
0.0
 32
0.0
 14
0.0
 24
0.0
 34
0.0
 15
20000.0
 25
10000.0
 35
0.0
146
0.0
 13
0.0
 23
0.0
 33
0.0
 16
1.0
 26
0.0
 36
0.0
 17
0.0
 27
1.0
 37
0.0
 76
     0
330
1F
331
29
  0
MLINESTYLE
  5
18
102
{ACAD_REACTORS
330
17
102
}
330
17
100
AcDbMlineStyle
  2
Standard
 70
     0
  3

 62
   256
 51
90.0
 52
90.0
 71
     2
 49
0.5
 62
   256
  6
BYLAYER
 49
-0.5
 62
   256
  6
BYLAYER
  0
ACDBPLACEHOLDER
  5
F
102
{ACAD_REACTORS
330
E
102
}
330
E
  0
SCALE
  5
48
102
{ACAD_REACTORS
330
47
102
}
330
47
100
AcDbScale
 70
     0
300
1:1
140
1.0
141
1.0
290
     1
  0
SCALE
  5
49
102
{ACAD_REACTORS
330
47
102
}
330
47
100
AcDbScale
 70
     0
300
1:2
140
1.0
141
2.0
290
     0
  0
SCALE
  5
4A
102
{ACAD_REACTORS
330
47
102
}
330
47
100
AcDbScale
 70
     0
300
1:4
140
1.0
141
4.0
290
     0
  0
SCALE
  5
4B
102
{ACAD_REACTORS
330
47
102
}
330
47
100
AcDbScale
 70
     0
300
1:5
140
1.0
141
5.0
290
     0
  0
SCALE
  5
4C
102
{ACAD_REACTORS
330
47
102
}
330
47
100
AcDbScale
 70
     0
300
1:8
140
1.0
141
8.0
290
     0
  0
SCALE
  5
4D
102
{ACAD_REACTORS
330
47
102
}
330
47
100
AcDbScale
 70
     0
300
1:10
140
1.0
141
10.0
290
     0
  0
SCALE
  5
4E
102
{ACAD_REACTORS
330
47
102
}
330
47
100
AcDbScale
 70
     0
300
1:16
140
1.0
141
16.0
290
     0
  0
SCALE
  5
4F
102
{ACAD_REACTORS
330
47
102
}
330
47
100
AcDbScale
 70
     0
300
1:20
140
1.0
141
20.0
290
     0
  0
SCALE
  5
50
102
{ACAD_REACTORS
330
47
102
}
330
47
100
AcDbScale
 70
     0
300
1:30
140
1.0
141
30.0
290
     0
  0
SCALE
  5
51
102
{ACAD_REACTORS
330
47
102
}
330
47
100
AcDbScale
 70
     0
300
1:40
140
1.0
141
40.0
290
     0
  0
SCALE
  5
52
102
{ACAD_REACTORS
330
47
102
}
330
47
100
AcDbScale
 70
     0
300
1:50
140
1.0
141
50.0
290
     0
  0
SCALE
  5
53
102
{ACAD_REACTORS
330
47
102
}
330
47
100
AcDbScale
 70
     0
300
1:100
140
1.0
141
100.0
290
     0
  0
SCALE
  5
54
102
{ACAD_REACTORS
330
47
102
}
330
47
100
AcDbScale
 70
     0
300
2:1
140
2.0
141
1.0
290
     0
  0
SCALE
  5
55
102
{ACAD_REACTORS
330
47
102
}
330
47
100
AcDbScale
 70
     0
300
4:1
140
4.0
141
1.0
290
     0
  0
SCALE
  5
56
102
{ACAD_REACTORS
330
47
102
}
330
47
100
AcDbScale
 70
     0
300
8:1
140
8.0
141
1.0
290
     0
  0
SCALE
  5
57
102
{ACAD_REACTORS
330
47
102
}
330
47
100
AcDbScale
 70
     0
300
10:1
140
10.0
141
1.0
290
     0
  0
SCALE
  5
58
102
{ACAD_REACTORS
330
47
102
}
330
47
100
AcDbScale
 70
     0
300
100:1
140
100.0
141
1.0
290
     0
  0
SCALE
  5
59
102
{ACAD_REACTORS
330
47
102
}
330
47
100
AcDbScale
 70
     0
300
1/128" = 1'-0"
140
0.0078125
141
12.0
290
     0
  0
SCALE
  5
5A
102
{ACAD_REACTORS
330
47
102
}
330
47
100
AcDbScale
 70
     0
300
1/64" = 1'-0"
140
0.015625
141
12.0
290
     0
  0
SCALE
  5
5B
102
{ACAD_REACTORS
330
47
102
}
330
47
100
AcDbScale
 70
     0
300
1/32" = 1'-0"
140
0.03125
141
12.0
290
     0
  0
SCALE
  5
5C
102
{ACAD_REACTORS
330
47
102
}
330
47
100
AcDbScale
 70
     0
300
1/16" = 1'-0"
140
0.0625
141
12.0
290
     0
  0
SCALE
  5
5D
102
{ACAD_REACTORS
330
47
102
}
330
47
100
AcDbScale
 70
     0
300
3/32" = 1'-0"
140
0.09375
141
12.0
290
     0
  0
SCALE
  5
5E
102
{ACAD_REACTORS
330
47
102
}
330
47
100
AcDbScale
 70
     0
300
1/8" = 1'-0"
140
0.125
141
12.0
290
     0
  0
SCALE
  5
5F
102
{ACAD_REACTORS
330
47
102
}
330
47
100
AcDbScale
 70
     0
300
3/16" = 1'-0"
140
0.1875
141
12.0
290
     0
  0
SCALE
  5
60
102
{ACAD_REACTORS
330
47
102
}
330
47
100
AcDbScale
 70
     0
300
1/4" = 1'-0"
140
0.25
141
12.0
290
     0
  0
SCALE
  5
61
102
{ACAD_REACTORS
330
47
102
}
330
47
100
AcDbScale
 70
     0
300
3/8" = 1'-0"
140
0.375
141
12.0
290
     0
  0
SCALE
  5
62
102
{ACAD_REACTORS
330
47
102
}
330
47
100
AcDbScale
 70
     0
300
1/2" = 1'-0"
140
0.5
141
12.0
290
     0
  0
SCALE
  5
63
102
{ACAD_REACTORS
330
47
102
}
330
47
100
AcDbScale
 70
     0
300
3/4" = 1'-0"
140
0.75
141
12.0
290
     0
  0
SCALE
  5
64
102
{ACAD_REACTORS
330
47
102
}
330
47
100
AcDbScale
 70
     0
300
1" = 1'-0"
140
1.0
141
12.0
290
     0
  0
SCALE
  5
65
102
{ACAD_REACTORS
330
47
102
}
330
47
100
AcDbScale
 70
     0
300
1-1/2" = 1'-0"
140
1.5
141
12.0
290
     0
  0
SCALE
  5
66
102
{ACAD_REACTORS
330
47
102
}
330
47
100
AcDbScale
 70
     0
300
3" = 1'-0"
140
3.0
141
12.0
290
     0
  0
SCALE
  5
67
102
{ACAD_REACTORS
330
47
102
}
330
47
100
AcDbScale
 70
     0
300
6" = 1'-0"
140
6.0
141
12.0
290
     0
  0
SCALE
  5
68
102
{ACAD_REACTORS
330
47
102
}
330
47
100
AcDbScale
 70
     0
300
1'-0" = 1'-0"
140
12.0
141
12.0
290
     0
  0
ENDSEC
  0
EOF
