  0
SECTION
  2
HEADER
  9
$ACADVER
  1
AC1015
  9
$ACADMAINTVER
 70
     6
  9
$DWGCODEPAGE
  3
ANSI_1250
  9
$INSBASE
 10
0.0
 20
0.0
 30
0.0
  9
$EXTMIN
 10
6177.6612802856
 20
4834.8321503594
 30
0.0
  9
$EXTMAX
 10
6629.8300627174
 20
5311.6461981167
 30
0.0
  9
$LIMMIN
 10
0.0
 20
0.0
  9
$LIMMAX
 10
420.0
 20
297.0
  9
$ORTHOMODE
 70
     0
  9
$REGENMODE
 70
     1
  9
$FILLMODE
 70
     1
  9
$QTEXTMODE
 70
     0
  9
$MIRRTEXT
 70
     1
  9
$LTSCALE
 40
1.0
  9
$ATTMODE
 70
     1
  9
$TEXTSIZE
 40
3.5
  9
$TRACEWID
 40
1.0
  9
$TEXTSTYLE
  7
Standard
  9
$CLAYER
  8
0
  9
$CELTYPE
  6
ByLayer
  9
$CECOLOR
 62
   256
  9
$CELTSCALE
 40
1.0
  9
$DISPSILH
 70
     0
  9
$DIMSCALE
 40
1.0
  9
$DIMASZ
 40
3.302
  9
$DIMEXO
 40
0.0
  9
$DIMDLI
 40
3.75
  9
$DIMRND
 40
0.0
  9
$DIMDLE
 40
0.0
  9
$DIMEXE
 40
1.0
  9
$DIMTP
 40
0.0
  9
$DIMTM
 40
0.0
  9
$DIMTXT
 40
3.5
  9
$DIMCEN
 40
2.5
  9
$DIMTSZ
 40
0.0
  9
$DIMTOL
 70
     0
  9
$DIMLIM
 70
     0
  9
$DIMTIH
 70
     1
  9
$DIMTOH
 70
     1
  9
$DIMSE1
 70
     0
  9
$DIMSE2
 70
     0
  9
$DIMTAD
 70
     1
  9
$DIMZIN
 70
     0
  9
$DIMBLK
  1

  9
$DIMASO
 70
     1
  9
$DIMSHO
 70
     1
  9
$DIMPOST
  1

  9
$DIMAPOST
  1

  9
$DIMALT
 70
     0
  9
$DIMALTD
 70
     3
  9
$DIMALTF
 40
0.0393700787
  9
$DIMLFAC
 40
1.0
  9
$DIMTOFL
 70
     1
  9
$DIMTVP
 40
0.0
  9
$DIMTIX
 70
     0
  9
$DIMSOXD
 70
     0
  9
$DIMSAH
 70
     0
  9
$DIMBLK1
  1

  9
$DIMBLK2
  1

  9
$DIMSTYLE
  2
ISO-25
  9
$DIMCLRD
 70
     0
  9
$DIMCLRE
 70
     0
  9
$DIMCLRT
 70
     0
  9
$DIMTFAC
 40
1.0
  9
$DIMGAP
 40
1.524
  9
$DIMJUST
 70
     0
  9
$DIMSD1
 70
     0
  9
$DIMSD2
 70
     0
  9
$DIMTOLJ
 70
     0
  9
$DIMTZIN
 70
     0
  9
$DIMALTZ
 70
     0
  9
$DIMALTTZ
 70
     0
  9
$DIMUPT
 70
     0
  9
$DIMDEC
 70
     2
  9
$DIMTDEC
 70
     2
  9
$DIMALTU
 70
     2
  9
$DIMALTTD
 70
     3
  9
$DIMTXSTY
  7
Standard
  9
$DIMAUNIT
 70
     0
  9
$DIMADEC
 70
     2
  9
$DIMALTRND
 40
0.0
  9
$DIMAZIN
 70
     0
  9
$DIMDSEP
 70
    44
  9
$DIMATFIT
 70
     3
  9
$DIMFRAC
 70
     0
  9
$DIMLDRBLK
  1

  9
$DIMLUNIT
 70
     2
  9
$DIMLWD
 70
    -2
  9
$DIMLWE
 70
    -2
  9
$DIMTMOVE
 70
     0
  9
$LUNITS
 70
     2
  9
$LUPREC
 70
     2
  9
$SKETCHINC
 40
1.0
  9
$FILLETRAD
 40
10.0
  9
$AUNITS
 70
     0
  9
$AUPREC
 70
     2
  9
$MENU
  1
.
  9
$ELEVATION
 40
0.0
  9
$PELEVATION
 40
0.0
  9
$THICKNESS
 40
0.0
  9
$LIMCHECK
 70
     0
  9
$CHAMFERA
 40
0.0
  9
$CHAMFERB
 40
0.0
  9
$CHAMFERC
 40
0.0
  9
$CHAMFERD
 40
0.0
  9
$SKPOLY
 70
     0
  9
$TDCREATE
 40
2459103.454436134
  9
$TDUCREATE
 40
2459103.371102801
  9
$TDUPDATE
 40
2459103.454468681
  9
$TDUUPDATE
 40
2459103.371135347
  9
$TDINDWG
 40
0.0000000116
  9
$TDUSRTIMER
 40
0.0000000116
  9
$USRTIMER
 70
     1
  9
$ANGBASE
 50
0.0
  9
$ANGDIR
 70
     0
  9
$PDMODE
 70
     0
  9
$PDSIZE
 40
-1.0
  9
$PLINEWID
 40
0.0
  9
$SPLFRAME
 70
     0
  9
$SPLINETYPE
 70
     6
  9
$SPLINESEGS
 70
     8
  9
$HANDSEED
  5
293
  9
$SURFTAB1
 70
     6
  9
$SURFTAB2
 70
     6
  9
$SURFTYPE
 70
     6
  9
$SURFU
 70
     6
  9
$SURFV
 70
     6
  9
$UCSBASE
  2

  9
$UCSNAME
  2

  9
$UCSORG
 10
0.0
 20
0.0
 30
0.0
  9
$UCSXDIR
 10
1.0
 20
0.0
 30
0.0
  9
$UCSYDIR
 10
0.0
 20
1.0
 30
0.0
  9
$UCSORTHOREF
  2

  9
$UCSORTHOVIEW
 70
     0
  9
$UCSORGTOP
 10
0.0
 20
0.0
 30
0.0
  9
$UCSORGBOTTOM
 10
0.0
 20
0.0
 30
0.0
  9
$UCSORGLEFT
 10
0.0
 20
0.0
 30
0.0
  9
$UCSORGRIGHT
 10
0.0
 20
0.0
 30
0.0
  9
$UCSORGFRONT
 10
0.0
 20
0.0
 30
0.0
  9
$UCSORGBACK
 10
0.0
 20
0.0
 30
0.0
  9
$PUCSBASE
  2

  9
$PUCSNAME
  2

  9
$PUCSORG
 10
0.0
 20
0.0
 30
0.0
  9
$PUCSXDIR
 10
1.0
 20
0.0
 30
0.0
  9
$PUCSYDIR
 10
0.0
 20
1.0
 30
0.0
  9
$PUCSORTHOREF
  2

  9
$PUCSORTHOVIEW
 70
     0
  9
$PUCSORGTOP
 10
0.0
 20
0.0
 30
0.0
  9
$PUCSORGBOTTOM
 10
0.0
 20
0.0
 30
0.0
  9
$PUCSORGLEFT
 10
0.0
 20
0.0
 30
0.0
  9
$PUCSORGRIGHT
 10
0.0
 20
0.0
 30
0.0
  9
$PUCSORGFRONT
 10
0.0
 20
0.0
 30
0.0
  9
$PUCSORGBACK
 10
0.0
 20
0.0
 30
0.0
  9
$USERI1
 70
     0
  9
$USERI2
 70
     0
  9
$USERI3
 70
     0
  9
$USERI4
 70
     0
  9
$USERI5
 70
     0
  9
$USERR1
 40
0.0
  9
$USERR2
 40
0.0
  9
$USERR3
 40
0.0
  9
$USERR4
 40
0.0
  9
$USERR5
 40
0.0
  9
$WORLDVIEW
 70
     1
  9
$SHADEDGE
 70
     3
  9
$SHADEDIF
 70
    70
  9
$TILEMODE
 70
     1
  9
$MAXACTVP
 70
    64
  9
$PINSBASE
 10
0.0
 20
0.0
 30
0.0
  9
$PLIMCHECK
 70
     0
  9
$PEXTMIN
 10
1.0000000000E+20
 20
1.0000000000E+20
 30
1.0000000000E+20
  9
$PEXTMAX
 10
-1.0000000000E+20
 20
-1.0000000000E+20
 30
-1.0000000000E+20
  9
$PLIMMIN
 10
0.0
 20
0.0
  9
$PLIMMAX
 10
420.0
 20
297.0
  9
$UNITMODE
 70
     0
  9
$VISRETAIN
 70
     1
  9
$PLINEGEN
 70
     0
  9
$PSLTSCALE
 70
     1
  9
$TREEDEPTH
 70
  3020
  9
$CMLSTYLE
  2
Standard
  9
$CMLJUST
 70
     0
  9
$CMLSCALE
 40
20.0
  9
$PROXYGRAPHICS
 70
     1
  9
$MEASUREMENT
 70
     1
  9
$CELWEIGHT
370
    -1
  9
$ENDCAPS
280
     0
  9
$JOINSTYLE
280
     0
  9
$LWDISPLAY
290
     1
  9
$INSUNITS
 70
     4
  9
$HYPERLINKBASE
  1

  9
$STYLESHEET
  1

  9
$XEDIT
290
     1
  9
$CEPSNTYPE
380
     0
  9
$PSTYLEMODE
290
     1
  9
$FINGERPRINTGUID
  2
{76d4597e-9a6a-4f09-9328-6336b3727c05}
  9
$VERSIONGUID
  2
{FAEB1C32-E019-11D5-929B-00C0DF256EC4}
  9
$EXTNAMES
290
     1
  9
$PSVPSCALE
 40
0.0
  9
$OLESTARTUP
290
     0
  0
ENDSEC
  0
SECTION
  2
CLASSES
  0
CLASS
  1
ACDBDICTIONARYWDFLT
  2
AcDbDictionaryWithDefault
  3
ObjectDBX Classes
 90
        0
280
     0
281
     0
  0
CLASS
  1
VISUALSTYLE
  2
AcDbVisualStyle
  3
ObjectDBX Classes
 90
     4095
280
     0
281
     0
  0
CLASS
  1
MATERIAL
  2
AcDbMaterial
  3
ObjectDBX Classes
 90
     1153
280
     0
281
     0
  0
CLASS
  1
SCALE
  2
AcDbScale
  3
ObjectDBX Classes
 90
     1153
280
     0
281
     0
  0
CLASS
  1
TABLESTYLE
  2
AcDbTableStyle
  3
ObjectDBX Classes
 90
     4095
280
     0
281
     0
  0
CLASS
  1
MLEADERSTYLE
  2
AcDbMLeaderStyle
  3
ACDB_MLEADERSTYLE_CLASS
 90
     4095
280
     0
281
     0
  0
CLASS
  1
SUN
  2
AcDbSun
  3
SCENEOE
 90
     1153
280
     0
281
     0
  0
CLASS
  1
ACDBPLACEHOLDER
  2
AcDbPlaceHolder
  3
ObjectDBX Classes
 90
        0
280
     0
281
     0
  0
CLASS
  1
LAYOUT
  2
AcDbLayout
  3
ObjectDBX Classes
 90
        0
280
     0
281
     0
  0
ENDSEC
  0
SECTION
  2
TABLES
  0
TABLE
  2
VPORT
  5
8
330
0
100
AcDbSymbolTable
 70
     1
  0
VPORT
  5
29
330
8
100
AcDbSymbolTableRecord
100
AcDbViewportTableRecord
  2
*Active
 70
     0
 10
0.0
 20
0.0
 11
1.0
 21
1.0
 12
6403.7456715015
 22
5073.239174238
 13
0.0
 23
0.0
 14
10.0
 24
10.0
 15
10.0
 25
10.0
 16
0.0
 26
0.0
 36
1.0
 17
0.0
 27
0.0
 37
0.0
 40
486.3503287124
 41
0.9483126274
 42
50.0
 43
0.0
 44
0.0
 50
0.0
 51
0.0
 71
     0
 72
   100
 73
     1
 74
     3
 75
     0
 76
     0
 77
     0
 78
     0
281
     0
 65
     1
110
0.0
120
0.0
130
0.0
111
1.0
121
0.0
131
0.0
112
0.0
122
1.0
132
0.0
 79
     0
146
0.0
  0
ENDTAB
  0
TABLE
  2
LTYPE
  5
5
330
0
100
AcDbSymbolTable
 70
     6
  0
LTYPE
  5
14
330
5
100
AcDbSymbolTableRecord
100
AcDbLinetypeTableRecord
  2
ByBlock
 70
     0
  3

 72
    65
 73
     0
 40
0.0
  0
LTYPE
  5
15
330
5
100
AcDbSymbolTableRecord
100
AcDbLinetypeTableRecord
  2
ByLayer
 70
     0
  3

 72
    65
 73
     0
 40
0.0
  0
LTYPE
  5
16
330
5
100
AcDbSymbolTableRecord
100
AcDbLinetypeTableRecord
  2
Continuous
 70
     0
  3
Solid line
 72
    65
 73
     0
 40
0.0
  0
LTYPE
  5
6E
330
5
100
AcDbSymbolTableRecord
100
AcDbLinetypeTableRecord
  2
HIDDEN
 70
     0
  3
Hidden __ __ __ __ __ __ __ __ __ __ __ __ __ __
 72
    65
 73
     2
 40
1.905
 49
1.27
 74
     0
 49
-0.635
 74
     0
  0
LTYPE
  5
6F
330
5
100
AcDbSymbolTableRecord
100
AcDbLinetypeTableRecord
  2
PHANTOM
 70
     0
  3
Phantom ______  __  __  ______  __  __  ______
 72
    65
 73
     6
 40
12.7
 49
6.35
 74
     0
 49
-1.27
 74
     0
 49
1.27
 74
     0
 49
-1.27
 74
     0
 49
1.27
 74
     0
 49
-1.27
 74
     0
  0
LTYPE
  5
70
330
5
100
AcDbSymbolTableRecord
100
AcDbLinetypeTableRecord
  2
CENTER
 70
     0
  3
Center ____ _ ____ _ ____ _ ____ _ ____ _ ____
 72
    65
 73
     4
 40
10.16
 49
6.35
 74
     0
 49
-1.27
 74
     0
 49
1.27
 74
     0
 49
-1.27
 74
     0
  0
LTYPE
  5
71
330
5
100
AcDbSymbolTableRecord
100
AcDbLinetypeTableRecord
  2
CENTERX2
 70
     0
  3
Center (2x) ________  __  ________  __  _____
 72
    65
 73
     4
 40
20.32
 49
12.7
 74
     0
 49
-2.54
 74
     0
 49
2.54
 74
     0
 49
-2.54
 74
     0
  0
LTYPE
  5
72
330
5
100
AcDbSymbolTableRecord
100
AcDbLinetypeTableRecord
  2
DOT2
 70
     0
  3
Dot (.5x) ........................................
 72
    65
 73
     2
 40
0.635
 49
0.0
 74
     0
 49
-0.635
 74
     0
  0
ENDTAB
  0
TABLE
  2
LAYER
  5
2
330
0
100
AcDbSymbolTable
 70
     1
  0
LAYER
  5
10
330
2
100
AcDbSymbolTableRecord
100
AcDbLayerTableRecord
  2
0
 70
     0
 62
     7
  6
Continuous
370
    -3
390
F
  0
ENDTAB
  0
TABLE
  2
STYLE
  5
3
330
0
100
AcDbSymbolTable
 70
     1
  0
STYLE
  5
11
330
3
100
AcDbSymbolTableRecord
100
AcDbTextStyleTableRecord
  2
Standard
 70
     0
 40
0.0
 41
1.0
 50
0.0
 71
     0
 42
3.5
  3
txt
  4

  0
ENDTAB
  0
TABLE
  2
VIEW
  5
6
330
0
100
AcDbSymbolTable
 70
     0
  0
ENDTAB
  0
TABLE
  2
UCS
  5
7
330
0
100
AcDbSymbolTable
 70
     0
  0
ENDTAB
  0
TABLE
  2
APPID
  5
9
330
0
100
AcDbSymbolTable
 70
     1
  0
APPID
  5
12
330
9
100
AcDbSymbolTableRecord
100
AcDbRegAppTableRecord
  2
ACAD
 70
     0
  0
ENDTAB
  0
TABLE
  2
DIMSTYLE
  5
A
330
0
100
AcDbSymbolTable
 70
     1
100
AcDbDimStyleTable
  0
DIMSTYLE
105
27
330
A
100
AcDbSymbolTableRecord
100
AcDbDimStyleTableRecord
  2
ISO-25
 70
     0
 41
2.5
 42
0.625
 43
3.75
 44
1.25
 73
     0
 74
     0
 77
     1
 78
     8
140
2.5
141
2.5
143
0.0393700787
147
0.625
171
     3
172
     1
178
     0
271
     2
272
     2
274
     3
278
    44
283
     0
284
     8
340
11
  0
ENDTAB
  0
TABLE
  2
BLOCK_RECORD
  5
1
330
0
100
AcDbSymbolTable
 70
     1
  0
BLOCK_RECORD
  5
1F
330
1
100
AcDbSymbolTableRecord
100
AcDbBlockTableRecord
  2
*Model_Space
340
22
  0
BLOCK_RECORD
  5
1B
330
1
100
AcDbSymbolTableRecord
100
AcDbBlockTableRecord
  2
*Paper_Space
340
1E
  0
BLOCK_RECORD
  5
23
330
1
100
AcDbSymbolTableRecord
100
AcDbBlockTableRecord
  2
*Paper_Space0
340
26
  0
ENDTAB
  0
ENDSEC
  0
SECTION
  2
BLOCKS
  0
BLOCK
  5
20
330
1F
100
AcDbEntity
  8
0
100
AcDbBlockBegin
  2
*Model_Space
 70
     0
 10
0.0
 20
0.0
 30
0.0
  3
*Model_Space
  1

  0
ENDBLK
  5
21
330
1F
100
AcDbEntity
  8
0
100
AcDbBlockEnd
  0
BLOCK
  5
1C
330
1B
100
AcDbEntity
 67
     1
  8
0
100
AcDbBlockBegin
  2
*Paper_Space
 70
     0
 10
0.0
 20
0.0
 30
0.0
  3
*Paper_Space
  1

  0
ENDBLK
  5
1D
330
1B
100
AcDbEntity
 67
     1
  8
0
100
AcDbBlockEnd
  0
BLOCK
  5
24
330
23
100
AcDbEntity
  8
0
100
AcDbBlockBegin
  2
*Paper_Space0
 70
     0
 10
0.0
 20
0.0
 30
0.0
  3
*Paper_Space0
  1

  0
ENDBLK
  5
25
330
23
100
AcDbEntity
  8
0
100
AcDbBlockEnd
  0
ENDSEC
  0
SECTION
  2
ENTITIES
  0
CIRCLE
  5
73
330
1F
100
AcDbEntity
  8
0
  6
Continuous
 62
     7
100
AcDbCircle
 10
6322.0812059077
 20
5165.9328042859
 30
0.0
 40
0.5814414999995279
  0
CIRCLE
  5
74
330
1F
100
AcDbEntity
  8
0
  6
Continuous
 62
     7
100
AcDbCircle
 10
6322.0812059077
 20
5165.9328042859
 30
0.0
 40
0.505037099999754
  0
ARC
  5
75
330
1F
100
AcDbEntity
  8
0
  6
Continuous
 62
     7
100
AcDbCircle
 10
6337.6612671726
 20
5149.7463653316
 30
0.0
 40
10.00000000000091
100
AcDbArc
 50
270.0000546413
 51
0.0000307358
  0
ARC
  5
76
330
1F
100
AcDbEntity
  8
0
  6
Continuous
 62
     7
100
AcDbCircle
 10
6337.6612671726
 20
5299.7463671198
 30
0.0
 40
10.00000000000091
100
AcDbArc
 50
0.0000119525
 51
89.9999453587
  0
ARC
  5
77
330
1F
100
AcDbEntity
  8
0
  6
Continuous
 62
     7
100
AcDbCircle
 10
6187.6612802856
 20
5299.7463671198
 30
0.0
 40
10.0
100
AcDbArc
 50
90.0000546418
 51
179.9999880476
  0
ARC
  5
78
330
1F
100
AcDbEntity
  8
0
  6
Continuous
 62
     7
100
AcDbCircle
 10
6187.6612802856
 20
5149.7463653316
 30
0.0
 40
10.0
100
AcDbArc
 50
179.9999692642
 51
269.9999453582
  0
ARC
  5
79
330
1F
100
AcDbEntity
  8
0
  6
Continuous
 62
     7
100
AcDbCircle
 10
6591.505037445
 20
5160.2461996187
 30
0.0
 40
0.8000000000002051
100
AcDbArc
 50
180.000097323
 51
270.0009698887
  0
ARC
  5
7A
330
1F
100
AcDbEntity
  8
0
  6
Continuous
 62
     7
100
AcDbCircle
 10
6603.1050224723
 20
5160.2461996175
 30
0.0
 40
0.8000000000004245
100
AcDbArc
 50
270.0032989835
 51
359.9999027637
  0
ARC
  5
7B
330
1F
100
AcDbEntity
  8
0
  6
Continuous
 62
     7
100
AcDbCircle
 10
6619.8050287665
 20
5149.7463653316
 30
0.0
 40
10.0
100
AcDbArc
 50
270.0000546418
 51
0.0000307358
  0
ARC
  5
7C
330
1F
100
AcDbEntity
  8
0
  6
Continuous
 62
     7
100
AcDbCircle
 10
6619.8050287665
 20
5299.7463671198
 30
0.0
 40
10.00000000000091
100
AcDbArc
 50
0.0000119525
 51
89.9999453582
  0
ARC
  5
7D
330
1F
100
AcDbEntity
  8
0
  6
Continuous
 62
     7
100
AcDbCircle
 10
6337.6612671726
 20
4844.8571843102
 30
0.0
 40
10.00000000000182
100
AcDbArc
 50
270.0000546413
 51
359.9999453588
  0
ARC
  5
7E
330
1F
100
AcDbEntity
  8
0
  6
Continuous
 62
     7
100
AcDbCircle
 10
6187.6612802856
 20
4844.8571843102
 30
0.0
 40
9.99999999999909
100
AcDbArc
 50
180.0000546412
 51
269.9999453582
  0
CIRCLE
  5
7F
330
1F
100
AcDbEntity
  8
0
  6
Continuous
 62
     7
100
AcDbCircle
 10
6262.6612679077
 20
4891.3571632566
 30
0.0
 40
7.25
  0
CIRCLE
  5
80
330
1F
100
AcDbEntity
  8
0
  6
Continuous
 62
     7
100
AcDbCircle
 10
6262.6612679077
 20
4891.3571632566
 30
0.0
 40
6.25
  0
CIRCLE
  5
81
330
1F
100
AcDbEntity
  8
0
  6
Continuous
 62
     7
100
AcDbCircle
 10
6262.6612679077
 20
4891.3571632566
 30
0.0
 40
3.650000000000546
  0
ARC
  5
82
330
1F
100
AcDbEntity
  8
0
  6
Continuous
 62
     7
100
AcDbCircle
 10
6262.6612631165
 20
4891.3571411285
 30
0.0
 40
13.22050000000098
100
AcDbArc
 50
77.7829753374
 51
167.7829180597
  0
CIRCLE
  5
83
330
1F
100
AcDbEntity
  8
0
  6
Continuous
 62
     7
100
AcDbCircle
 10
6262.6612679077
 20
4891.3571632566
 30
0.0
 40
11.72050000000036
  0
CIRCLE
  5
84
330
1F
100
AcDbEntity
  8
0
  6
Continuous
 62
     7
100
AcDbCircle
 10
6262.6612679077
 20
4891.3571632566
 30
0.0
 40
7.625
  0
LINE
  5
85
330
1F
100
AcDbEntity
  8
0
  6
Continuous
 62
     7
100
AcDbLine
 10
6275.3390773647
 20
5310.6888953676
 30
0.0
 11
6274.3817671649
 21
5311.6461981167
 31
0.0
  0
LINE
  5
86
330
1F
100
AcDbEntity
  8
0
  6
Continuous
 62
     7
100
AcDbLine
 10
6250.9407802932
 20
5311.6461981167
 30
0.0
 11
6249.4944437854
 21
5310.1998839607
 31
0.0
  0
LINE
  5
87
330
1F
100
AcDbEntity
  8
0
  6
Continuous
 62
     7
100
AcDbLine
 10
6275.0146492832
 20
5310.4898233046
 30
0.0
 11
6275.3160103671
 21
5310.663928472
 31
0.0
  0
LINE
  5
88
330
1F
100
AcDbEntity
  8
0
  6
Continuous
 62
     7
100
AcDbLine
 10
6275.8817776554
 20
5309.7463671198
 30
0.0
 11
6275.8817776554
 21
5309.8042357793
 31
0.0
  0
LINE
  5
89
330
1F
100
AcDbEntity
  8
0
  6
Continuous
 62
     7
100
AcDbLine
 10
6275.0224872939
 20
5310.3010926475
 30
0.0
 11
6275.0224872939
 21
5310.4943532576
 31
0.0
  0
LINE
  5
8A
330
1F
100
AcDbEntity
  8
0
  6
Continuous
 62
     7
100
AcDbLine
 10
6302.3269876354
 20
5164.5883482029
 30
0.0
 11
6302.5975033157
 21
5164.5883482029
 31
0.0
  0
LINE
  5
8B
330
1F
100
AcDbEntity
  8
0
  6
Continuous
 62
     7
100
AcDbLine
 10
6301.9034668319
 20
5162.6736942758
 30
0.0
 11
6301.9034668319
 21
5162.4059278598
 31
0.0
  0
LINE
  5
8C
330
1F
100
AcDbEntity
  8
0
  6
Continuous
 62
     7
100
AcDbLine
 10
6301.9034668319
 20
5162.4059278598
 30
0.0
 11
6303.0215605609
 21
5162.4059278598
 31
0.0
  0
LINE
  5
8D
330
1F
100
AcDbEntity
  8
0
  6
Continuous
 62
     7
100
AcDbLine
 10
6303.0215605609
 20
5162.4059278598
 30
0.0
 11
6303.0215605609
 21
5162.6802433362
 31
0.0
  0
LINE
  5
8E
330
1F
100
AcDbEntity
  8
0
  6
Continuous
 62
     7
100
AcDbLine
 10
6302.5975033157
 20
5163.8837877741
 30
0.0
 11
6302.3269876354
 21
5163.8837877741
 31
0.0
  0
LINE
  5
8F
330
1F
100
AcDbEntity
  8
0
  6
Continuous
 62
     7
100
AcDbLine
 10
6303.721170079
 20
5163.2917571892
 30
0.0
 11
6303.721170079
 21
5159.3663666477
 31
0.0
  0
LINE
  5
90
330
1F
100
AcDbEntity
  8
0
  6
Continuous
 62
     7
100
AcDbLine
 10
6303.721170079
 20
5159.3663666477
 30
0.0
 11
6303.0215605609
 21
5159.3663666477
 31
0.0
  0
LINE
  5
91
330
1F
100
AcDbEntity
  8
0
  6
Continuous
 62
     7
100
AcDbLine
 10
6303.0215605609
 20
5159.3663666477
 30
0.0
 11
6303.0215605609
 21
5161.6734612813
 31
0.0
  0
LINE
  5
92
330
1F
100
AcDbEntity
  8
0
  6
Continuous
 62
     7
100
AcDbLine
 10
6303.0215605609
 20
5161.6734612813
 30
0.0
 11
6301.9037052505
 21
5161.6734612813
 31
0.0
  0
LINE
  5
93
330
1F
100
AcDbEntity
  8
0
  6
Continuous
 62
     7
100
AcDbLine
 10
6301.9037052505
 20
5161.6734612813
 30
0.0
 11
6301.9034668319
 21
5159.3663666477
 31
0.0
  0
LINE
  5
94
330
1F
100
AcDbEntity
  8
0
  6
Continuous
 62
     7
100
AcDbLine
 10
6301.9034668319
 20
5159.3663666477
 30
0.0
 11
6301.2174769752
 21
5159.3663666477
 31
0.0
  0
LINE
  5
95
330
1F
100
AcDbEntity
  8
0
  6
Continuous
 62
     7
100
AcDbLine
 10
6301.2174769752
 20
5159.3663666477
 30
0.0
 11
6301.2174769752
 21
5161.6734612813
 31
0.0
  0
LINE
  5
96
330
1F
100
AcDbEntity
  8
0
  6
Continuous
 62
     7
100
AcDbLine
 10
6301.2174769752
 20
5161.6734612813
 30
0.0
 11
6300.9169503562
 21
5161.6734612813
 31
0.0
  0
LINE
  5
97
330
1F
100
AcDbEntity
  8
0
  6
Continuous
 62
     7
100
AcDbLine
 10
6300.9169503562
 20
5161.6734612813
 30
0.0
 11
6300.6747766845
 21
5162.4057490458
 31
0.0
  0
LINE
  5
98
330
1F
100
AcDbEntity
  8
0
  6
Continuous
 62
     7
100
AcDbLine
 10
6300.6747766845
 20
5162.4057490458
 30
0.0
 11
6301.2174769752
 21
5162.4057490458
 31
0.0
  0
LINE
  5
99
330
1F
100
AcDbEntity
  8
0
  6
Continuous
 62
     7
100
AcDbLine
 10
6301.2174769752
 20
5162.4057490458
 30
0.0
 11
6301.2174769752
 21
5163.3012194266
 31
0.0
  0
LINE
  5
9A
330
1F
100
AcDbEntity
  8
0
  6
Continuous
 62
     7
100
AcDbLine
 10
6298.4884783141
 20
5162.8169689407
 30
0.0
 11
6299.4328245036
 21
5161.7483843198
 31
0.0
  0
LINE
  5
9B
330
1F
100
AcDbEntity
  8
0
  6
Continuous
 62
     7
100
AcDbLine
 10
6315.9564837329
 20
5165.7654877832
 30
0.0
 11
6299.5983466022
 21
5165.7654132774
 31
0.0
  0
LINE
  5
9C
330
1F
100
AcDbEntity
  8
0
  6
Continuous
 62
     7
100
AcDbLine
 10
6315.9564837329
 20
5165.0005403986
 30
0.0
 11
6315.9564837329
 21
5165.7654877832
 31
0.0
  0
LINE
  5
9D
330
1F
100
AcDbEntity
  8
0
  6
Continuous
 62
     7
100
AcDbLine
 10
6299.648891341
 20
5165.0005403986
 30
0.0
 11
6315.9564837329
 21
5165.0005403986
 31
0.0
  0
LINE
  5
9E
330
1F
100
AcDbEntity
  8
0
  6
Continuous
 62
     7
100
AcDbLine
 10
6300.1715942733
 20
5162.0919529428
 30
0.0
 11
6299.4789584987
 21
5162.8828544249
 31
0.0
  0
LINE
  5
9F
330
1F
100
AcDbEntity
  8
0
  6
Continuous
 62
     7
100
AcDbLine
 10
6297.6683482044
 20
5159.3663666477
 30
0.0
 11
6299.230496537
 21
5159.3663666477
 31
0.0
  0
LINE
  5
A0
330
1F
100
AcDbEntity
  8
0
  6
Continuous
 62
     7
100
AcDbLine
 10
6297.6683482044
 20
5160.1441700091
 30
0.0
 11
6297.6683482044
 21
5159.3663666477
 31
0.0
  0
LINE
  5
A1
330
1F
100
AcDbEntity
  8
0
  6
Continuous
 62
     7
100
AcDbLine
 10
6299.1651698463
 20
5160.1441700091
 30
0.0
 11
6297.6683482044
 21
5160.1441700091
 31
0.0
  0
LINE
  5
A2
330
1F
100
AcDbEntity
  8
0
  6
Continuous
 62
     7
100
AcDbLine
 10
6304.3159350269
 20
5164.5883482029
 30
0.0
 11
6306.5970941894
 21
5162.7456072797
 31
0.0
  0
LINE
  5
A3
330
1F
100
AcDbEntity
  8
0
  6
Continuous
 62
     7
100
AcDbLine
 10
6306.5970941894
 20
5162.7456072797
 30
0.0
 11
6306.5970941894
 21
5164.4974101414
 31
0.0
  0
LINE
  5
A4
330
1F
100
AcDbEntity
  8
0
  6
Continuous
 62
     7
100
AcDbLine
 10
6306.5970941894
 20
5164.4974101414
 30
0.0
 11
6307.3881670349
 21
5164.4975107243
 31
0.0
  0
LINE
  5
A5
330
1F
100
AcDbEntity
  8
0
  6
Continuous
 62
     7
100
AcDbLine
 10
6307.3881670349
 20
5164.4975107243
 30
0.0
 11
6307.3881670349
 21
5162.4059278598
 31
0.0
  0
LINE
  5
A6
330
1F
100
AcDbEntity
  8
0
  6
Continuous
 62
     7
100
AcDbLine
 10
6307.3881670349
 20
5162.4059278598
 30
0.0
 11
6307.9826935642
 21
5162.4059278598
 31
0.0
  0
LINE
  5
A7
330
1F
100
AcDbEntity
  8
0
  6
Continuous
 62
     7
100
AcDbLine
 10
6307.9826935642
 20
5162.4059278598
 30
0.0
 11
6307.9826935642
 21
5164.4975107243
 31
0.0
  0
LINE
  5
A8
330
1F
100
AcDbEntity
  8
0
  6
Continuous
 62
     7
100
AcDbLine
 10
6307.9826935642
 20
5164.4975107243
 30
0.0
 11
6309.9437459819
 21
5164.4975107243
 31
0.0
  0
LINE
  5
A9
330
1F
100
AcDbEntity
  8
0
  6
Continuous
 62
     7
100
AcDbLine
 10
6309.9437459819
 20
5163.8837877741
 30
0.0
 11
6308.6236819141
 21
5163.8837877741
 31
0.0
  0
LINE
  5
AA
330
1F
100
AcDbEntity
  8
0
  6
Continuous
 62
     7
100
AcDbLine
 10
6308.6236819141
 20
5163.8837877741
 30
0.0
 11
6308.6236819141
 21
5162.4059278598
 31
0.0
  0
LINE
  5
AB
330
1F
100
AcDbEntity
  8
0
  6
Continuous
 62
     7
100
AcDbLine
 10
6308.6236819141
 20
5162.4059278598
 30
0.0
 11
6309.9538787715
 21
5162.4059278598
 31
0.0
  0
LINE
  5
AC
330
1F
100
AcDbEntity
  8
0
  6
Continuous
 62
     7
100
AcDbLine
 10
6309.9538787715
 20
5162.4059278598
 30
0.0
 11
6310.1955756061
 21
5161.6734612813
 31
0.0
  0
LINE
  5
AD
330
1F
100
AcDbEntity
  8
0
  6
Continuous
 62
     7
100
AcDbLine
 10
6310.1955756061
 20
5161.6734612813
 30
0.0
 11
6308.6234434955
 21
5161.6734612813
 31
0.0
  0
LINE
  5
AE
330
1F
100
AcDbEntity
  8
0
  6
Continuous
 62
     7
100
AcDbLine
 10
6308.6236819141
 20
5160.0266743531
 30
0.0
 11
6309.9437459819
 21
5160.0266743531
 31
0.0
  0
LINE
  5
AF
330
1F
100
AcDbEntity
  8
0
  6
Continuous
 62
     7
100
AcDbLine
 10
6309.9437459819
 20
5160.0266743531
 30
0.0
 11
6309.9437459819
 21
5159.3663666477
 31
0.0
  0
LINE
  5
B0
330
1F
100
AcDbEntity
  8
0
  6
Continuous
 62
     7
100
AcDbLine
 10
6309.9437459819
 20
5159.3663666477
 30
0.0
 11
6307.9826935642
 21
5159.3663666477
 31
0.0
  0
LINE
  5
B1
330
1F
100
AcDbEntity
  8
0
  6
Continuous
 62
     7
100
AcDbLine
 10
6307.9826935642
 20
5159.3663666477
 30
0.0
 11
6307.9827531688
 21
5161.6734612813
 31
0.0
  0
LINE
  5
B2
330
1F
100
AcDbEntity
  8
0
  6
Continuous
 62
     7
100
AcDbLine
 10
6307.9827531688
 20
5161.6734612813
 30
0.0
 11
6307.3881670349
 21
5161.6734612813
 31
0.0
  0
LINE
  5
B3
330
1F
100
AcDbEntity
  8
0
  6
Continuous
 62
     7
100
AcDbLine
 10
6307.3881670349
 20
5161.6734612813
 30
0.0
 11
6307.3881670349
 21
5159.3663666477
 31
0.0
  0
LINE
  5
B4
330
1F
100
AcDbEntity
  8
0
  6
Continuous
 62
     7
100
AcDbLine
 10
6307.3881670349
 20
5159.3663666477
 30
0.0
 11
6306.5970941894
 21
5159.3663666477
 31
0.0
  0
LINE
  5
B5
330
1F
100
AcDbEntity
  8
0
  6
Continuous
 62
     7
100
AcDbLine
 10
6306.5970941894
 20
5161.6734612813
 30
0.0
 11
6305.0477012508
 21
5162.8501761784
 31
0.0
  0
LINE
  5
B6
330
1F
100
AcDbEntity
  8
0
  6
Continuous
 62
     7
100
AcDbLine
 10
6305.0477012508
 20
5162.8501761784
 30
0.0
 11
6305.0479694717
 21
5159.3663666477
 31
0.0
  0
LINE
  5
B7
330
1F
100
AcDbEntity
  8
0
  6
Continuous
 62
     7
100
AcDbLine
 10
6305.0479694717
 20
5159.3663666477
 30
0.0
 11
6304.3158456199
 21
5159.3663666477
 31
0.0
  0
LINE
  5
B8
330
1F
100
AcDbEntity
  8
0
  6
Continuous
 62
     7
100
AcDbLine
 10
6309.9437459819
 20
5164.4975107243
 30
0.0
 11
6309.9437459819
 21
5163.8837877741
 31
0.0
  0
LINE
  5
B9
330
1F
100
AcDbEntity
  8
0
  6
Continuous
 62
     7
100
AcDbLine
 10
6308.6234434955
 20
5161.6734612813
 30
0.0
 11
6308.6236819141
 21
5160.0266743531
 31
0.0
  0
LINE
  5
BA
330
1F
100
AcDbEntity
  8
0
  6
Continuous
 62
     7
100
AcDbLine
 10
6306.5970941894
 20
5159.3663666477
 30
0.0
 11
6306.5970941894
 21
5161.6734612813
 31
0.0
  0
LINE
  5
BB
330
1F
100
AcDbEntity
  8
0
  6
Continuous
 62
     7
100
AcDbLine
 10
6304.3158456199
 20
5159.3663666477
 30
0.0
 11
6304.3159350269
 21
5164.5883482029
 31
0.0
  0
LINE
  5
BC
330
1F
100
AcDbEntity
  8
0
  6
Continuous
 62
     7
100
AcDbLine
 10
6319.1115661971
 20
5163.7163955798
 30
0.0
 11
6318.7034531944
 21
5163.7163955798
 31
0.0
  0
LINE
  5
BD
330
1F
100
AcDbEntity
  8
0
  6
Continuous
 62
     7
100
AcDbLine
 10
6317.1911641471
 20
5164.9094756772
 30
0.0
 11
6317.2443910949
 21
5164.9849277069
 31
0.0
  0
LINE
  5
BE
330
1F
100
AcDbEntity
  8
0
  6
Continuous
 62
     7
100
AcDbLine
 10
6319.0095826499
 20
5163.6099714865
 30
0.0
 11
6319.1115661971
 21
5163.6099714865
 31
0.0
  0
LINE
  5
BF
330
1F
100
AcDbEntity
  8
0
  6
Continuous
 62
     7
100
AcDbLine
 10
6318.7034531944
 20
5163.6099714865
 30
0.0
 11
6318.8010259979
 21
5163.6099714865
 31
0.0
  0
LINE
  5
C0
330
1F
100
AcDbEntity
  8
0
  6
Continuous
 62
     7
100
AcDbLine
 10
6321.9712778442
 20
5165.9328278234
 30
0.0
 11
6321.9712778442
 21
5166.2052657535
 31
0.0
  0
LINE
  5
C1
330
1F
100
AcDbEntity
  8
0
  6
Continuous
 62
     7
100
AcDbLine
 10
6322.0573469512
 20
5165.9328278234
 30
0.0
 11
6321.9712778442
 21
5165.9328278234
 31
0.0
  0
LINE
  5
C2
330
1F
100
AcDbEntity
  8
0
  6
Continuous
 62
     7
100
AcDbLine
 10
6321.9712778442
 20
5166.2052657535
 30
0.0
 11
6322.0557376258
 21
5166.2052657535
 31
0.0
  0
LINE
  5
C3
330
1F
100
AcDbEntity
  8
0
  6
Continuous
 62
     7
100
AcDbLine
 10
6322.3549231403
 20
5165.5942063858
 30
0.0
 11
6322.1728011482
 21
5165.8966105511
 31
0.0
  0
LINE
  5
C4
330
1F
100
AcDbEntity
  8
0
  6
Continuous
 62
     7
100
AcDbLine
 10
6322.2619696967
 20
5165.5942063858
 30
0.0
 11
6322.3549231403
 21
5165.5942063858
 31
0.0
  0
LINE
  5
C5
330
1F
100
AcDbEntity
  8
0
  6
Continuous
 62
     7
100
AcDbLine
 10
6322.1003815048
 20
5165.8714611163
 30
0.0
 11
6322.2619696967
 21
5165.5942063858
 31
0.0
  0
LINE
  5
C6
330
1F
100
AcDbEntity
  8
0
  6
Continuous
 62
     7
100
AcDbLine
 10
6321.9712778442
 20
5165.8714611163
 30
0.0
 11
6322.1003815048
 21
5165.8714611163
 31
0.0
  0
LINE
  5
C7
330
1F
100
AcDbEntity
  8
0
  6
Continuous
 62
     7
100
AcDbLine
 10
6321.9712778442
 20
5165.5942063858
 30
0.0
 11
6321.9712778442
 21
5165.8714611163
 31
0.0
  0
LINE
  5
C8
330
1F
100
AcDbEntity
  8
0
  6
Continuous
 62
     7
100
AcDbLine
 10
6321.8936427944
 20
5165.5942063858
 30
0.0
 11
6321.9712778442
 21
5165.5942063858
 31
0.0
  0
LINE
  5
C9
330
1F
100
AcDbEntity
  8
0
  6
Continuous
 62
     7
100
AcDbLine
 10
6321.8936427944
 20
5166.2714269092
 30
0.0
 11
6321.8936427944
 21
5165.5942063858
 31
0.0
  0
LINE
  5
CA
330
1F
100
AcDbEntity
  8
0
  6
Continuous
 62
     7
100
AcDbLine
 10
6322.0557376258
 20
5166.2714269092
 30
0.0
 11
6321.8936427944
 21
5166.2714269092
 31
0.0
  0
LINE
  5
CB
330
1F
100
AcDbEntity
  8
0
  6
Continuous
 62
     7
100
AcDbLine
 10
6310.538063895
 20
5164.4975107243
 30
0.0
 11
6311.2829133384
 21
5164.4975107243
 31
0.0
  0
LINE
  5
CC
330
1F
100
AcDbEntity
  8
0
  6
Continuous
 62
     7
100
AcDbLine
 10
6311.2829133384
 20
5164.4975107243
 30
0.0
 11
6311.2829133384
 21
5160.0266743531
 31
0.0
  0
LINE
  5
CD
330
1F
100
AcDbEntity
  8
0
  6
Continuous
 62
     7
100
AcDbLine
 10
6311.2829133384
 20
5160.0266743531
 30
0.0
 11
6312.8580852859
 21
5160.0266743531
 31
0.0
  0
LINE
  5
CE
330
1F
100
AcDbEntity
  8
0
  6
Continuous
 62
     7
100
AcDbLine
 10
6312.8580852859
 20
5160.0266743531
 30
0.0
 11
6312.8580852859
 21
5159.3663666477
 31
0.0
  0
LINE
  5
CF
330
1F
100
AcDbEntity
  8
0
  6
Continuous
 62
     7
100
AcDbLine
 10
6312.8580852859
 20
5159.3663666477
 30
0.0
 11
6310.538063895
 21
5159.3663666477
 31
0.0
  0
LINE
  5
D0
330
1F
100
AcDbEntity
  8
0
  6
Continuous
 62
     7
100
AcDbLine
 10
6310.538063895
 20
5159.3663666477
 30
0.0
 11
6310.538063895
 21
5164.4975107243
 31
0.0
  0
LINE
  5
D1
330
1F
100
AcDbEntity
  8
0
  6
Continuous
 62
     7
100
AcDbLine
 10
6314.5622118823
 20
5164.5883482029
 30
0.0
 11
6314.8326977603
 21
5164.5883482029
 31
0.0
  0
LINE
  5
D2
330
1F
100
AcDbEntity
  8
0
  6
Continuous
 62
     7
100
AcDbLine
 10
6314.1386910789
 20
5162.6736942758
 30
0.0
 11
6314.1386910789
 21
5162.4059278598
 31
0.0
  0
LINE
  5
D3
330
1F
100
AcDbEntity
  8
0
  6
Continuous
 62
     7
100
AcDbLine
 10
6314.1386910789
 20
5162.4059278598
 30
0.0
 11
6315.2567550056
 21
5162.4059278598
 31
0.0
  0
LINE
  5
D4
330
1F
100
AcDbEntity
  8
0
  6
Continuous
 62
     7
100
AcDbLine
 10
6315.2567550056
 20
5162.4059278598
 30
0.0
 11
6315.2567550056
 21
5162.6802433362
 31
0.0
  0
LINE
  5
D5
330
1F
100
AcDbEntity
  8
0
  6
Continuous
 62
     7
100
AcDbLine
 10
6314.8326977603
 20
5163.8837877741
 30
0.0
 11
6314.5622118823
 21
5163.8837877741
 31
0.0
  0
LINE
  5
D6
330
1F
100
AcDbEntity
  8
0
  6
Continuous
 62
     7
100
AcDbLine
 10
6315.9564539306
 20
5163.2917571892
 30
0.0
 11
6315.9564539306
 21
5159.3663666477
 31
0.0
  0
LINE
  5
D7
330
1F
100
AcDbEntity
  8
0
  6
Continuous
 62
     7
100
AcDbLine
 10
6315.9564539306
 20
5159.3663666477
 30
0.0
 11
6315.2567550056
 21
5159.3663666477
 31
0.0
  0
LINE
  5
D8
330
1F
100
AcDbEntity
  8
0
  6
Continuous
 62
     7
100
AcDbLine
 10
6315.2567550056
 20
5159.3663666477
 30
0.0
 11
6315.2567550056
 21
5161.6734612813
 31
0.0
  0
LINE
  5
D9
330
1F
100
AcDbEntity
  8
0
  6
Continuous
 62
     7
100
AcDbLine
 10
6315.2567550056
 20
5161.6734612813
 30
0.0
 11
6314.1389294975
 21
5161.6734612813
 31
0.0
  0
LINE
  5
DA
330
1F
100
AcDbEntity
  8
0
  6
Continuous
 62
     7
100
AcDbLine
 10
6314.1389294975
 20
5161.6734612813
 30
0.0
 11
6314.1386910789
 21
5159.3663666477
 31
0.0
  0
LINE
  5
DB
330
1F
100
AcDbEntity
  8
0
  6
Continuous
 62
     7
100
AcDbLine
 10
6314.1386910789
 20
5159.3663666477
 30
0.0
 11
6313.4527012222
 21
5159.3663666477
 31
0.0
  0
LINE
  5
DC
330
1F
100
AcDbEntity
  8
0
  6
Continuous
 62
     7
100
AcDbLine
 10
6313.4527012222
 20
5159.3663666477
 30
0.0
 11
6313.4527012222
 21
5161.6734612813
 31
0.0
  0
LINE
  5
DD
330
1F
100
AcDbEntity
  8
0
  6
Continuous
 62
     7
100
AcDbLine
 10
6313.4527012222
 20
5161.6734612813
 30
0.0
 11
6313.1522640102
 21
5161.6734612813
 31
0.0
  0
LINE
  5
DE
330
1F
100
AcDbEntity
  8
0
  6
Continuous
 62
     7
100
AcDbLine
 10
6313.1522640102
 20
5161.6734612813
 30
0.0
 11
6312.9100903385
 21
5162.4057490458
 31
0.0
  0
LINE
  5
DF
330
1F
100
AcDbEntity
  8
0
  6
Continuous
 62
     7
100
AcDbLine
 10
6312.9100903385
 20
5162.4057490458
 30
0.0
 11
6313.4527012222
 21
5162.4057490458
 31
0.0
  0
LINE
  5
E0
330
1F
100
AcDbEntity
  8
0
  6
Continuous
 62
     7
100
AcDbLine
 10
6313.4527012222
 20
5162.4057490458
 30
0.0
 11
6313.4527012222
 21
5163.3012194266
 31
0.0
  0
LINE
  5
E1
330
1F
100
AcDbEntity
  8
0
  6
Continuous
 62
     7
100
AcDbLine
 10
6187.6612802856
 20
5299.7463671198
 30
0.0
 11
6187.6612802856
 21
5149.7463653316
 31
0.0
  0
LINE
  5
E2
330
1F
100
AcDbEntity
  8
0
  6
Continuous
 62
     7
100
AcDbLine
 10
6337.6612671726
 20
5299.7463671198
 30
0.0
 11
6187.6612802856
 21
5299.7463671198
 31
0.0
  0
LINE
  5
E3
330
1F
100
AcDbEntity
  8
0
  6
Continuous
 62
     7
100
AcDbLine
 10
6337.6612671726
 20
5149.7463653316
 30
0.0
 11
6337.6612671726
 21
5299.7463671198
 31
0.0
  0
LINE
  5
E4
330
1F
100
AcDbEntity
  8
0
  6
Continuous
 62
     7
100
AcDbLine
 10
6187.6612802856
 20
5149.7463653316
 30
0.0
 11
6337.6612671726
 21
5149.7463653316
 31
0.0
  0
LINE
  5
E5
330
1F
100
AcDbEntity
  8
0
  6
Continuous
 62
     7
100
AcDbLine
 10
6337.6612671726
 20
5149.7463653316
 30
0.0
 11
6347.6612671726
 21
5149.746370696
 31
0.0
  0
LINE
  5
E6
330
1F
100
AcDbEntity
  8
0
  6
Continuous
 62
     7
100
AcDbLine
 10
6337.6612671726
 20
5149.7463653316
 30
0.0
 11
6337.6612767093
 21
5139.7463653316
 31
0.0
  0
LINE
  5
E7
330
1F
100
AcDbEntity
  8
0
  6
Continuous
 62
     7
100
AcDbLine
 10
6337.6612767093
 20
5309.7463671198
 30
0.0
 11
6187.6612707488
 21
5309.7463671198
 31
0.0
  0
LINE
  5
E8
330
1F
100
AcDbEntity
  8
0
  6
Continuous
 62
     7
100
AcDbLine
 10
6337.6612767093
 20
5309.7463671198
 30
0.0
 11
6337.6612671726
 21
5299.7463671198
 31
0.0
  0
LINE
  5
E9
330
1F
100
AcDbEntity
  8
0
  6
Continuous
 62
     7
100
AcDbLine
 10
6187.6612707488
 20
5309.7463671198
 30
0.0
 11
6187.6612802856
 21
5299.7463671198
 31
0.0
  0
LINE
  5
EA
330
1F
100
AcDbEntity
  8
0
  6
Continuous
 62
     7
100
AcDbLine
 10
6337.6612671726
 20
5299.7463671198
 30
0.0
 11
6347.6612671726
 21
5299.7463692059
 31
0.0
  0
LINE
  5
EB
330
1F
100
AcDbEntity
  8
0
  6
Continuous
 62
     7
100
AcDbLine
 10
6347.6612671726
 20
5149.746370696
 30
0.0
 11
6347.6612671726
 21
5299.7463692059
 31
0.0
  0
LINE
  5
EC
330
1F
100
AcDbEntity
  8
0
  6
Continuous
 62
     7
100
AcDbLine
 10
6177.6612802856
 20
5299.7463692059
 30
0.0
 11
6187.6612802856
 21
5299.7463671198
 31
0.0
  0
LINE
  5
ED
330
1F
100
AcDbEntity
  8
0
  6
Continuous
 62
     7
100
AcDbLine
 10
6177.6612802856
 20
5299.7463692059
 30
0.0
 11
6177.6612802856
 21
5149.746370696
 31
0.0
  0
LINE
  5
EE
330
1F
100
AcDbEntity
  8
0
  6
Continuous
 62
     7
100
AcDbLine
 10
6177.6612802856
 20
5149.746370696
 30
0.0
 11
6187.6612802856
 21
5149.7463653316
 31
0.0
  0
LINE
  5
EF
330
1F
100
AcDbEntity
  8
0
  6
Continuous
 62
     7
100
AcDbLine
 10
6187.6612707488
 20
5139.7463653316
 30
0.0
 11
6337.6612767093
 21
5139.7463653316
 31
0.0
  0
LINE
  5
F0
330
1F
100
AcDbEntity
  8
0
  6
Continuous
 62
     7
100
AcDbLine
 10
6187.6612802856
 20
5149.7463653316
 30
0.0
 11
6187.6612707488
 21
5139.7463653316
 31
0.0
  0
LINE
  5
F1
330
1F
100
AcDbEntity
  8
0
  6
Continuous
 62
     7
100
AcDbLine
 10
6251.3193889968
 20
5311.6461981167
 30
0.0
 11
6274.3817671649
 21
5311.6461981167
 31
0.0
  0
LINE
  5
F2
330
1F
100
AcDbEntity
  8
0
  6
Continuous
 62
     7
100
AcDbLine
 10
6250.9407802932
 20
5311.6461981167
 30
0.0
 11
6251.3193889968
 21
5311.6461981167
 31
0.0
  0
LINE
  5
F3
330
1F
100
AcDbEntity
  8
0
  6
Continuous
 62
     7
100
AcDbLine
 10
6547.8050712051
 20
5161.1461985936
 30
0.0
 11
6617.4050572814
 21
5161.1461985936
 31
0.0
  0
LINE
  5
F4
330
1F
100
AcDbEntity
  8
0
  6
Continuous
 62
     7
100
AcDbLine
 10
6617.4050572814
 20
5292.1462033024
 30
0.0
 11
6547.8050712051
 21
5292.1462033024
 31
0.0
  0
LINE
  5
F5
330
1F
100
AcDbEntity
  8
0
  6
Continuous
 62
     7
100
AcDbLine
 10
6617.4050572814
 20
5167.0948986044
 30
0.0
 11
6617.3275712432
 21
5167.2278281381
 31
0.0
  0
LINE
  5
F6
330
1F
100
AcDbEntity
  8
0
  6
Continuous
 62
     7
100
AcDbLine
 10
6617.4050572814
 20
5163.2902894249
 30
0.0
 11
6617.4778345527
 21
5163.165454947
 31
0.0
  0
LINE
  5
F7
330
1F
100
AcDbEntity
  8
0
  6
Continuous
 62
     7
100
AcDbLine
 10
6617.4050572814
 20
5290.0949020018
 30
0.0
 11
6617.3275712432
 21
5290.2278278103
 31
0.0
  0
LINE
  5
F8
330
1F
100
AcDbEntity
  8
0
  6
Continuous
 62
     7
100
AcDbLine
 10
6590.705037445
 20
5161.1461985936
 30
0.0
 11
6590.705037445
 21
5160.2461982598
 31
0.0
  0
LINE
  5
F9
330
1F
100
AcDbEntity
  8
0
  6
Continuous
 62
     7
100
AcDbLine
 10
6603.9050224723
 20
5160.2461982598
 30
0.0
 11
6603.9050224723
 21
5161.1461985936
 31
0.0
  0
LINE
  5
FA
330
1F
100
AcDbEntity
  8
0
  6
Continuous
 62
     7
100
AcDbLine
 10
6586.2178209724
 20
5310.453948759
 30
0.0
 11
6585.0255492629
 21
5311.6461981167
 31
0.0
  0
LINE
  5
FB
330
1F
100
AcDbEntity
  8
0
  6
Continuous
 62
     7
100
AcDbLine
 10
6560.2284077109
 20
5310.2900806894
 30
0.0
 11
6560.0845220985
 21
5310.1462025275
 31
0.0
  0
LINE
  5
FC
330
1F
100
AcDbEntity
  8
0
  6
Continuous
 62
     7
100
AcDbLine
 10
6561.5845325889
 20
5311.6461981167
 30
0.0
 11
6560.8884099425
 21
5310.9500456681
 31
0.0
  0
LINE
  5
FD
330
1F
100
AcDbEntity
  8
0
  6
Continuous
 62
     7
100
AcDbLine
 10
6586.5255597533
 20
5309.0106744399
 30
0.0
 11
6586.5255597533
 21
5309.4073657026
 31
0.0
  0
LINE
  5
FE
330
1F
100
AcDbEntity
  8
0
  6
Continuous
 62
     7
100
AcDbLine
 10
6586.5255597533
 20
5307.4231717815
 30
0.0
 11
6586.5255597533
 21
5307.8198630442
 31
0.0
  0
LINE
  5
FF
330
1F
100
AcDbEntity
  8
0
  6
Continuous
 62
     7
100
AcDbLine
 10
6586.5255597533
 20
5305.8356765737
 30
0.0
 11
6586.5255597533
 21
5306.2323603859
 31
0.0
  0
LINE
  5
100
330
1F
100
AcDbEntity
  8
0
  6
Continuous
 62
     7
100
AcDbLine
 10
6586.5255597533
 20
5304.2481739154
 30
0.0
 11
6586.5255597533
 21
5304.6448651781
 31
0.0
  0
LINE
  5
101
330
1F
100
AcDbEntity
  8
0
  6
Continuous
 62
     7
100
AcDbLine
 10
6586.5255597533
 20
5302.6462022295
 30
0.0
 11
6586.5255597533
 21
5303.0573625197
 31
0.0
  0
LINE
  5
102
330
1F
100
AcDbEntity
  8
0
  6
Continuous
 62
     7
100
AcDbLine
 10
6560.0845220985
 20
5303.8512665858
 30
0.0
 11
6560.0845220985
 21
5303.4543965091
 31
0.0
  0
LINE
  5
103
330
1F
100
AcDbEntity
  8
0
  6
Continuous
 62
     7
100
AcDbLine
 10
6560.0845220985
 20
5305.4387692442
 30
0.0
 11
6560.0845220985
 21
5305.0418917169
 31
0.0
  0
LINE
  5
104
330
1F
100
AcDbEntity
  8
0
  6
Continuous
 62
     7
100
AcDbLine
 10
6560.0845220985
 20
5307.0262644519
 30
0.0
 11
6560.0845220985
 21
5306.6293943753
 31
0.0
  0
LINE
  5
105
330
1F
100
AcDbEntity
  8
0
  6
Continuous
 62
     7
100
AcDbLine
 10
6560.0845220985
 20
5308.6137671103
 30
0.0
 11
6560.0845220985
 21
5308.2168895831
 31
0.0
  0
LINE
  5
106
330
1F
100
AcDbEntity
  8
0
  6
Continuous
 62
     7
100
AcDbLine
 10
6560.0845220985
 20
5310.1462025275
 30
0.0
 11
6560.0845220985
 21
5309.8043922414
 31
0.0
  0
LINE
  5
107
330
1F
100
AcDbEntity
  8
0
  6
Continuous
 62
     7
100
AcDbLine
 10
6560.9516504706
 20
5302.7690697541
 30
0.0
 11
6560.7616904677
 21
5302.6593301525
 31
0.0
  0
LINE
  5
108
330
1F
100
AcDbEntity
  8
0
  6
Continuous
 62
     7
100
AcDbLine
 10
6560.9438422622
 20
5309.30890628
 30
0.0
 11
6560.9438422622
 21
5309.1145578851
 31
0.0
  0
LINE
  5
109
330
1F
100
AcDbEntity
  8
0
  6
Continuous
 62
     7
100
AcDbLine
 10
6560.9438422622
 20
5307.7214036216
 30
0.0
 11
6560.9438422622
 21
5307.5270552268
 31
0.0
  0
LINE
  5
10A
330
1F
100
AcDbEntity
  8
0
  6
Continuous
 62
     7
100
AcDbLine
 10
6560.9438422622
 20
5306.1339009633
 30
0.0
 11
6560.9438422622
 21
5305.9395525684
 31
0.0
  0
LINE
  5
10B
330
1F
100
AcDbEntity
  8
0
  6
Continuous
 62
     7
100
AcDbLine
 10
6560.9438422622
 20
5304.5464057555
 30
0.0
 11
6560.9438422622
 21
5304.3520573606
 31
0.0
  0
LINE
  5
10C
330
1F
100
AcDbEntity
  8
0
  6
Continuous
 62
     7
100
AcDbLine
 10
6560.9438422622
 20
5302.9589030971
 30
0.0
 11
6560.9438422622
 21
5302.7645547023
 31
0.0
  0
LINE
  5
10D
330
1F
100
AcDbEntity
  8
0
  6
Continuous
 62
     7
100
AcDbLine
 10
6585.6662395896
 20
5308.3167124619
 30
0.0
 11
6585.6662395896
 21
5308.5099805226
 31
0.0
  0
LINE
  5
10E
330
1F
100
AcDbEntity
  8
0
  6
Continuous
 62
     7
100
AcDbLine
 10
6585.6662395896
 20
5306.7292172541
 30
0.0
 11
6585.6662395896
 21
5306.9224778642
 31
0.0
  0
LINE
  5
10F
330
1F
100
AcDbEntity
  8
0
  6
Continuous
 62
     7
100
AcDbLine
 10
6585.6662395896
 20
5305.1417145958
 30
0.0
 11
6585.6662395896
 21
5305.3349826564
 31
0.0
  0
LINE
  5
110
330
1F
100
AcDbEntity
  8
0
  6
Continuous
 62
     7
100
AcDbLine
 10
6585.6662395896
 20
5303.5542119374
 30
0.0
 11
6585.6662395896
 21
5303.7474799981
 31
0.0
  0
LINE
  5
111
330
1F
100
AcDbEntity
  8
0
  6
Continuous
 62
     7
100
AcDbLine
 10
6585.6662395896
 20
5309.9042151203
 30
0.0
 11
6585.6662395896
 21
5310.097483181
 31
0.0
  0
LINE
  5
112
330
1F
100
AcDbEntity
  8
0
  6
Continuous
 62
     7
100
AcDbLine
 10
6560.9438422622
 20
5310.8964014878
 30
0.0
 11
6560.9438422622
 21
5310.7020530929
 31
0.0
  0
LINE
  5
113
330
1F
100
AcDbEntity
  8
0
  6
Continuous
 62
     7
100
AcDbLine
 10
6560.6841448249
 20
5142.5465915432
 30
0.0
 11
6561.5845325889
 21
5141.6462037792
 31
0.0
  0
LINE
  5
114
330
1F
100
AcDbEntity
  8
0
  6
Continuous
 62
     7
100
AcDbLine
 10
6585.0254896583
 20
5141.6462037792
 30
0.0
 11
6586.4408019485
 21
5143.061434113
 31
0.0
  0
LINE
  5
115
330
1F
100
AcDbEntity
  8
0
  6
Continuous
 62
     7
100
AcDbLine
 10
6560.9506967963
 20
5142.7386228075
 30
0.0
 11
6560.6877211036
 21
5142.5866905679
 31
0.0
  0
LINE
  5
116
330
1F
100
AcDbEntity
  8
0
  6
Continuous
 62
     7
100
AcDbLine
 10
6560.0845220985
 20
5143.8218478193
 30
0.0
 11
6560.0845220985
 21
5143.4251416554
 31
0.0
  0
LINE
  5
117
330
1F
100
AcDbEntity
  8
0
  6
Continuous
 62
     7
100
AcDbLine
 10
6560.0845220985
 20
5145.4093430271
 30
0.0
 11
6560.0845220985
 21
5145.0126443138
 31
0.0
  0
LINE
  5
118
330
1F
100
AcDbEntity
  8
0
  6
Continuous
 62
     7
100
AcDbLine
 10
6560.0845220985
 20
5146.9968456855
 30
0.0
 11
6560.0845220985
 21
5146.6001469721
 31
0.0
  0
LINE
  5
119
330
1F
100
AcDbEntity
  8
0
  6
Continuous
 62
     7
100
AcDbLine
 10
6560.0845220985
 20
5148.5843483438
 30
0.0
 11
6560.0845220985
 21
5148.1876421799
 31
0.0
  0
LINE
  5
11A
330
1F
100
AcDbEntity
  8
0
  6
Continuous
 62
     7
100
AcDbLine
 10
6560.0845220985
 20
5150.1718435516
 30
0.0
 11
6560.0845220985
 21
5149.7751448383
 31
0.0
  0
LINE
  5
11B
330
1F
100
AcDbEntity
  8
0
  6
Continuous
 62
     7
100
AcDbLine
 10
6586.5255597533
 20
5150.5687210788
 30
0.0
 11
6586.5255597533
 21
5150.6461996665
 31
0.0
  0
LINE
  5
11C
330
1F
100
AcDbEntity
  8
0
  6
Continuous
 62
     7
100
AcDbLine
 10
6586.5255597533
 20
5148.9812184205
 30
0.0
 11
6586.5255597533
 21
5149.378356718
 31
0.0
  0
LINE
  5
11D
330
1F
100
AcDbEntity
  8
0
  6
Continuous
 62
     7
100
AcDbLine
 10
6586.5255597533
 20
5147.3937232127
 30
0.0
 11
6586.5255597533
 21
5147.7908615102
 31
0.0
  0
LINE
  5
11E
330
1F
100
AcDbEntity
  8
0
  6
Continuous
 62
     7
100
AcDbLine
 10
6586.5255597533
 20
5145.8062205543
 30
0.0
 11
6586.5255597533
 21
5146.2033588519
 31
0.0
  0
LINE
  5
11F
330
1F
100
AcDbEntity
  8
0
  6
Continuous
 62
     7
100
AcDbLine
 10
6586.5255597533
 20
5144.218717896
 30
0.0
 11
6586.5255597533
 21
5144.6158561935
 31
0.0
  0
LINE
  5
120
330
1F
100
AcDbEntity
  8
0
  6
Continuous
 62
     7
100
AcDbLine
 10
6585.6662991943
 20
5145.1116774311
 30
0.0
 11
6585.6662991943
 21
5145.3061748376
 31
0.0
  0
LINE
  5
121
330
1F
100
AcDbEntity
  8
0
  6
Continuous
 62
     7
100
AcDbLine
 10
6585.6662991943
 20
5146.6991726389
 30
0.0
 11
6585.6662991943
 21
5146.8936700453
 31
0.0
  0
LINE
  5
122
330
1F
100
AcDbEntity
  8
0
  6
Continuous
 62
     7
100
AcDbLine
 10
6585.6662991943
 20
5148.2866752972
 30
0.0
 11
6585.6662991943
 21
5148.4811727037
 31
0.0
  0
LINE
  5
123
330
1F
100
AcDbEntity
  8
0
  6
Continuous
 62
     7
100
AcDbLine
 10
6585.6662991943
 20
5149.8741779556
 30
0.0
 11
6585.6662991943
 21
5150.0686753621
 31
0.0
  0
LINE
  5
124
330
1F
100
AcDbEntity
  8
0
  6
Continuous
 62
     7
100
AcDbLine
 10
6560.9437826575
 20
5144.5164803495
 30
0.0
 11
6560.9437826575
 21
5144.3221319546
 31
0.0
  0
LINE
  5
125
330
1F
100
AcDbEntity
  8
0
  6
Continuous
 62
     7
100
AcDbLine
 10
6560.9437826575
 20
5146.1039830079
 30
0.0
 11
6560.9437826575
 21
5145.909634613
 31
0.0
  0
LINE
  5
126
330
1F
100
AcDbEntity
  8
0
  6
Continuous
 62
     7
100
AcDbLine
 10
6560.9437826575
 20
5147.6914782157
 30
0.0
 11
6560.9437826575
 21
5147.4971298208
 31
0.0
  0
LINE
  5
127
330
1F
100
AcDbEntity
  8
0
  6
Continuous
 62
     7
100
AcDbLine
 10
6560.9437826575
 20
5149.278980874
 30
0.0
 11
6560.9437826575
 21
5149.0846324792
 31
0.0
  0
LINE
  5
128
330
1F
100
AcDbEntity
  8
0
  6
Continuous
 62
     7
100
AcDbLine
 10
6560.9437826575
 20
5142.9289776911
 30
0.0
 11
6560.9437826575
 21
5142.7346292963
 31
0.0
  0
LINE
  5
129
330
1F
100
AcDbEntity
  8
0
  6
Continuous
 62
     7
100
AcDbLine
 10
6585.6662991943
 20
5143.5241747727
 30
0.0
 11
6585.6662991943
 21
5143.7186721792
 31
0.0
  0
LINE
  5
12A
330
1F
100
AcDbEntity
  8
0
  6
Continuous
 62
     7
100
AcDbLine
 10
6617.4050572814
 20
5156.6462043752
 30
0.0
 11
6619.8050383033
 21
5156.6462043752
 31
0.0
  0
LINE
  5
12B
330
1F
100
AcDbEntity
  8
0
  6
Continuous
 62
     7
100
AcDbLine
 10
6617.4050572814
 20
5156.6462043752
 30
0.0
 11
6617.4050572814
 21
5175.7687416007
 31
0.0
  0
LINE
  5
12C
330
1F
100
AcDbEntity
  8
0
  6
Continuous
 62
     7
100
AcDbLine
 10
6617.4050572814
 20
5277.5236602952
 30
0.0
 11
6617.4050572814
 21
5175.7687416007
 31
0.0
  0
LINE
  5
12D
330
1F
100
AcDbEntity
  8
0
  6
Continuous
 62
     7
100
AcDbLine
 10
6617.4050572814
 20
5296.6461975207
 30
0.0
 11
6619.8050383033
 21
5296.6461975207
 31
0.0
  0
LINE
  5
12E
330
1F
100
AcDbEntity
  8
0
  6
Continuous
 62
     7
100
AcDbLine
 10
6617.4050572814
 20
5296.6461975207
 30
0.0
 11
6617.4050572814
 21
5277.5236602952
 31
0.0
  0
LINE
  5
12F
330
1F
100
AcDbEntity
  8
0
  6
Continuous
 62
     7
100
AcDbLine
 10
6547.8050712051
 20
5167.9746296336
 30
0.0
 11
6547.8050712051
 21
5161.1461985936
 31
0.0
  0
LINE
  5
130
330
1F
100
AcDbEntity
  8
0
  6
Continuous
 62
     7
100
AcDbLine
 10
6617.4050572814
 20
5167.9746296336
 30
0.0
 11
6547.8050712051
 21
5167.9746296336
 31
0.0
  0
LINE
  5
131
330
1F
100
AcDbEntity
  8
0
  6
Continuous
 62
     7
100
AcDbLine
 10
6547.8050712051
 20
5285.3177722623
 30
0.0
 11
6547.8050712051
 21
5292.1462033024
 31
0.0
  0
LINE
  5
132
330
1F
100
AcDbEntity
  8
0
  6
Continuous
 62
     7
100
AcDbLine
 10
6617.4050572814
 20
5285.3177722623
 30
0.0
 11
6547.8050712051
 21
5285.3177722623
 31
0.0
  0
LINE
  5
133
330
1F
100
AcDbEntity
  8
0
  6
Continuous
 62
     7
100
AcDbLine
 10
6617.4050572814
 20
5172.2172696223
 30
0.0
 11
6547.8050712051
 21
5172.2172696223
 31
0.0
  0
LINE
  5
134
330
1F
100
AcDbEntity
  8
0
  6
Continuous
 62
     7
100
AcDbLine
 10
6547.8050712051
 20
5177.6314836075
 30
0.0
 11
6547.8050712051
 21
5172.2172696223
 31
0.0
  0
LINE
  5
135
330
1F
100
AcDbEntity
  8
0
  6
Continuous
 62
     7
100
AcDbLine
 10
6617.4050572814
 20
5177.6314836075
 30
0.0
 11
6547.8050712051
 21
5177.6314836075
 31
0.0
  0
LINE
  5
136
330
1F
100
AcDbEntity
  8
0
  6
Continuous
 62
     7
100
AcDbLine
 10
6617.4050572814
 20
5275.6609182884
 30
0.0
 11
6547.8050712051
 21
5275.6609182884
 31
0.0
  0
LINE
  5
137
330
1F
100
AcDbEntity
  8
0
  6
Continuous
 62
     7
100
AcDbLine
 10
6547.8050712051
 20
5177.6314836075
 30
0.0
 11
6547.8050712051
 21
5275.6609182884
 31
0.0
  0
LINE
  5
138
330
1F
100
AcDbEntity
  8
0
  6
Continuous
 62
     7
100
AcDbLine
 10
6547.8050712051
 20
5275.6609182884
 30
0.0
 11
6547.8050712051
 21
5281.0751322736
 31
0.0
  0
LINE
  5
139
330
1F
100
AcDbEntity
  8
0
  6
Continuous
 62
     7
100
AcDbLine
 10
6617.4050572814
 20
5281.0751322736
 30
0.0
 11
6547.8050712051
 21
5281.0751322736
 31
0.0
  0
LINE
  5
13A
330
1F
100
AcDbEntity
  8
0
  6
Continuous
 62
     7
100
AcDbLine
 10
6547.8050712051
 20
5172.2172696223
 30
0.0
 11
6547.8050712051
 21
5167.9746296336
 31
0.0
  0
LINE
  5
13B
330
1F
100
AcDbEntity
  8
0
  6
Continuous
 62
     7
100
AcDbLine
 10
6547.8050712051
 20
5281.0751322736
 30
0.0
 11
6547.8050712051
 21
5285.3177722623
 31
0.0
  0
LINE
  5
13C
330
1F
100
AcDbEntity
  8
0
  6
Continuous
 62
     7
100
AcDbLine
 10
6617.4050572814
 20
5161.1461985936
 30
0.0
 11
6547.8050712051
 21
5161.1461985936
 31
0.0
  0
LINE
  5
13D
330
1F
100
AcDbEntity
  8
0
  6
Continuous
 62
     7
100
AcDbLine
 10
6617.4050572814
 20
5292.1462033024
 30
0.0
 11
6547.8050712051
 21
5292.1462033024
 31
0.0
  0
LINE
  5
13E
330
1F
100
AcDbEntity
  8
0
  6
Continuous
 62
     7
100
AcDbLine
 10
6629.8300627174
 20
5161.6734612813
 30
0.0
 11
6629.8300627174
 21
5161.7483843198
 31
0.0
  0
LINE
  5
13F
330
1F
100
AcDbEntity
  8
0
  6
Continuous
 62
     7
100
AcDbLine
 10
6629.8300627174
 20
5159.3663666477
 30
0.0
 11
6629.8050287665
 21
5159.3663666477
 31
0.0
  0
LINE
  5
140
330
1F
100
AcDbEntity
  8
0
  6
Continuous
 62
     7
100
AcDbLine
 10
6629.8300627174
 20
5160.1441700091
 30
0.0
 11
6629.8050287665
 21
5160.1441700091
 31
0.0
  0
LINE
  5
141
330
1F
100
AcDbEntity
  8
0
  6
Continuous
 62
     7
100
AcDbLine
 10
6629.8300627174
 20
5160.1441700091
 30
0.0
 11
6629.8300627174
 21
5159.3663666477
 31
0.0
  0
LINE
  5
142
330
1F
100
AcDbEntity
  8
0
  6
Continuous
 62
     7
100
AcDbLine
 10
6629.8300627174
 20
5164.3339593043
 30
0.0
 11
6629.8050287665
 21
5164.3339593043
 31
0.0
  0
LINE
  5
143
330
1F
100
AcDbEntity
  8
0
  6
Continuous
 62
     7
100
AcDbLine
 10
6629.8300627174
 20
5162.8169689407
 30
0.0
 11
6629.8050287665
 21
5162.8169689407
 31
0.0
  0
LINE
  5
144
330
1F
100
AcDbEntity
  8
0
  6
Continuous
 62
     7
100
AcDbLine
 10
6629.8300627174
 20
5165.7654132774
 30
0.0
 11
6629.8050287665
 21
5165.7654132774
 31
0.0
  0
LINE
  5
145
330
1F
100
AcDbEntity
  8
0
  6
Continuous
 62
     7
100
AcDbLine
 10
6629.8300627174
 20
5161.7483843198
 30
0.0
 11
6629.8050287665
 21
5161.7483843198
 31
0.0
  0
LINE
  5
146
330
1F
100
AcDbEntity
  8
0
  6
Continuous
 62
     7
100
AcDbLine
 10
6629.8300627174
 20
5162.8169689407
 30
0.0
 11
6629.8300627174
 21
5161.7483843198
 31
0.0
  0
LINE
  5
147
330
1F
100
AcDbEntity
  8
0
  6
Continuous
 62
     7
100
AcDbLine
 10
6629.8300627174
 20
5160.7207927932
 30
0.0
 11
6629.8050287665
 21
5160.7207927932
 31
0.0
  0
LINE
  5
148
330
1F
100
AcDbEntity
  8
0
  6
Continuous
 62
     7
100
AcDbLine
 10
6629.8300627174
 20
5165.7654132774
 30
0.0
 11
6629.8050287665
 21
5165.7654132774
 31
0.0
  0
LINE
  5
149
330
1F
100
AcDbEntity
  8
0
  6
Continuous
 62
     7
100
AcDbLine
 10
6629.8300627174
 20
5166.5017467072
 30
0.0
 11
6629.8050287665
 21
5166.5017467072
 31
0.0
  0
LINE
  5
14A
330
1F
100
AcDbEntity
  8
0
  6
Continuous
 62
     7
100
AcDbLine
 10
6629.8300627174
 20
5166.5106054475
 30
0.0
 11
6629.8050287665
 21
5166.5106054475
 31
0.0
  0
LINE
  5
14B
330
1F
100
AcDbEntity
  8
0
  6
Continuous
 62
     7
100
AcDbLine
 10
6619.8050287665
 20
5299.7463671198
 30
0.0
 11
6619.8050287665
 21
5149.7463653316
 31
0.0
  0
LINE
  5
14C
330
1F
100
AcDbEntity
  8
0
  6
Continuous
 62
     7
100
AcDbLine
 10
6619.8050287665
 20
5299.7463671198
 30
0.0
 11
6629.8050287665
 21
5299.7463692059
 31
0.0
  0
LINE
  5
14D
330
1F
100
AcDbEntity
  8
0
  6
Continuous
 62
     7
100
AcDbLine
 10
6629.8050287665
 20
5299.7463692059
 30
0.0
 11
6629.8050287665
 21
5149.746370696
 31
0.0
  0
LINE
  5
14E
330
1F
100
AcDbEntity
  8
0
  6
Continuous
 62
     7
100
AcDbLine
 10
6619.8050287665
 20
5149.7463653316
 30
0.0
 11
6629.8050287665
 21
5149.746370696
 31
0.0
  0
LINE
  5
14F
330
1F
100
AcDbEntity
  8
0
  6
Continuous
 62
     7
100
AcDbLine
 10
6619.8050287665
 20
5149.7463653316
 30
0.0
 11
6619.8050383033
 21
5139.7463653316
 31
0.0
  0
LINE
  5
150
330
1F
100
AcDbEntity
  8
0
  6
Continuous
 62
     7
100
AcDbLine
 10
6619.8050383033
 20
5309.7463671198
 30
0.0
 11
6619.8050287665
 21
5299.7463671198
 31
0.0
  0
LINE
  5
151
330
1F
100
AcDbEntity
  8
0
  6
Continuous
 62
     7
100
AcDbLine
 10
6594.1327813567
 20
5159.4461996188
 30
0.0
 11
6603.1050685348
 21
5159.4461996188
 31
0.0
  0
LINE
  5
152
330
1F
100
AcDbEntity
  8
0
  6
Continuous
 62
     7
100
AcDbLine
 10
6591.5050509872
 20
5159.4461996188
 30
0.0
 11
6594.1327813567
 21
5159.4461996188
 31
0.0
  0
LINE
  5
153
330
1F
100
AcDbEntity
  8
0
  6
Continuous
 62
     7
100
AcDbLine
 10
6570.5074075164
 20
5310.1462025275
 30
0.0
 11
6560.0845220985
 21
5310.1462025275
 31
0.0
  0
LINE
  5
154
330
1F
100
AcDbEntity
  8
0
  6
Continuous
 62
     7
100
AcDbLine
 10
6576.2600902022
 20
5311.6461981167
 30
0.0
 11
6585.0255492629
 21
5311.6461981167
 31
0.0
  0
LINE
  5
155
330
1F
100
AcDbEntity
  8
0
  6
Continuous
 62
     7
100
AcDbLine
 10
6561.5845325889
 20
5311.6461981167
 30
0.0
 11
6576.2600902022
 21
5311.6461981167
 31
0.0
  0
LINE
  5
156
330
1F
100
AcDbEntity
  8
0
  6
Continuous
 62
     7
100
AcDbLine
 10
6569.9776414336
 20
5302.6462022295
 30
0.0
 11
6569.9776414336
 21
5292.1462033024
 31
0.0
  0
LINE
  5
157
330
1F
100
AcDbEntity
  8
0
  6
Continuous
 62
     7
100
AcDbLine
 10
6559.0315464439
 20
5302.6462022295
 30
0.0
 11
6559.0315464439
 21
5292.1462033024
 31
0.0
  0
LINE
  5
158
330
1F
100
AcDbEntity
  8
0
  6
Continuous
 62
     7
100
AcDbLine
 10
6559.0315464439
 20
5302.6462022295
 30
0.0
 11
6563.2288459243
 21
5302.6462022295
 31
0.0
  0
LINE
  5
159
330
1F
100
AcDbEntity
  8
0
  6
Continuous
 62
     7
100
AcDbLine
 10
6565.8133629264
 20
5302.6462022295
 30
0.0
 11
6569.9776414336
 21
5302.6462022295
 31
0.0
  0
LINE
  5
15A
330
1F
100
AcDbEntity
  8
0
  6
Continuous
 62
     7
100
AcDbLine
 10
6584.7158435287
 20
5302.6462022295
 30
0.0
 11
6586.5045193137
 21
5302.6462022295
 31
0.0
  0
LINE
  5
15B
330
1F
100
AcDbEntity
  8
0
  6
Continuous
 62
     7
100
AcDbLine
 10
6586.5122083129
 20
5302.6606936087
 30
0.0
 11
6586.5045193137
 21
5302.6462022295
 31
0.0
  0
LINE
  5
15C
330
1F
100
AcDbEntity
  8
0
  6
Continuous
 62
     7
100
AcDbLine
 10
6583.4397676887
 20
5302.6462022295
 30
0.0
 11
6583.4397676887
 21
5292.1462033024
 31
0.0
  0
LINE
  5
15D
330
1F
100
AcDbEntity
  8
0
  6
Continuous
 62
     7
100
AcDbLine
 10
6569.9776414336
 20
5302.6462022295
 30
0.0
 11
6583.4397676887
 21
5302.6462022295
 31
0.0
  0
LINE
  5
15E
330
1F
100
AcDbEntity
  8
0
  6
Continuous
 62
     7
100
AcDbLine
 10
6587.5785354079
 20
5302.6462022295
 30
0.0
 11
6587.5785354079
 21
5292.1462033024
 31
0.0
  0
LINE
  5
15F
330
1F
100
AcDbEntity
  8
0
  6
Continuous
 62
     7
100
AcDbLine
 10
6586.5052345695
 20
5302.6462022295
 30
0.0
 11
6587.5785354079
 21
5302.6462022295
 31
0.0
  0
LINE
  5
160
330
1F
100
AcDbEntity
  8
0
  6
Continuous
 62
     7
100
AcDbLine
 10
6583.4397676887
 20
5302.6462022295
 30
0.0
 11
6584.7158435287
 21
5302.6462022295
 31
0.0
  0
LINE
  5
161
330
1F
100
AcDbEntity
  8
0
  6
Continuous
 62
     7
100
AcDbLine
 10
6573.2559565009
 20
5150.6461996665
 30
0.0
 11
6573.2559565009
 21
5161.1461985936
 31
0.0
  0
LINE
  5
162
330
1F
100
AcDbEntity
  8
0
  6
Continuous
 62
     7
100
AcDbLine
 10
6586.7804292144
 20
5150.6461996665
 30
0.0
 11
6586.7804292144
 21
5161.1461985936
 31
0.0
  0
LINE
  5
163
330
1F
100
AcDbEntity
  8
0
  6
Continuous
 62
     7
100
AcDbLine
 10
6586.7804292144
 20
5150.6461996665
 30
0.0
 11
6573.2559565009
 21
5150.6461996665
 31
0.0
  0
LINE
  5
164
330
1F
100
AcDbEntity
  8
0
  6
Continuous
 62
     7
100
AcDbLine
 10
6559.7805384101
 20
5150.6461996665
 30
0.0
 11
6559.7805384101
 21
5161.1461985936
 31
0.0
  0
LINE
  5
165
330
1F
100
AcDbEntity
  8
0
  6
Continuous
 62
     7
100
AcDbLine
 10
6573.2559565009
 20
5150.6461996665
 30
0.0
 11
6559.7805384101
 21
5150.6461996665
 31
0.0
  0
LINE
  5
166
330
1F
100
AcDbEntity
  8
0
  6
Continuous
 62
     7
100
AcDbLine
 10
6585.0254896583
 20
5141.6462037792
 30
0.0
 11
6561.5845325889
 21
5141.6462037792
 31
0.0
  0
LINE
  5
167
330
1F
100
AcDbEntity
  8
0
  6
Continuous
 62
     7
100
AcDbLine
 10
6560.1115826072
 20
5143.8218478193
 30
0.0
 11
6560.087442726
 21
5143.8269738187
 31
0.0
  0
LINE
  5
168
330
1F
100
AcDbEntity
  8
0
  6
Continuous
 62
     7
100
AcDbLine
 10
6560.1115826072
 20
5145.4093430271
 30
0.0
 11
6560.087442726
 21
5145.4144690265
 31
0.0
  0
LINE
  5
169
330
1F
100
AcDbEntity
  8
0
  6
Continuous
 62
     7
100
AcDbLine
 10
6560.1115826072
 20
5146.9968456855
 30
0.0
 11
6560.087442726
 21
5147.0019716849
 31
0.0
  0
LINE
  5
16A
330
1F
100
AcDbEntity
  8
0
  6
Continuous
 62
     7
100
AcDbLine
 10
6560.1115826072
 20
5148.5843483438
 30
0.0
 11
6560.087442726
 21
5148.5894743433
 31
0.0
  0
LINE
  5
16B
330
1F
100
AcDbEntity
  8
0
  6
Continuous
 62
     7
100
AcDbLine
 10
6560.1115826072
 20
5150.1718435516
 30
0.0
 11
6560.087442726
 21
5150.1769695511
 31
0.0
  0
LINE
  5
16C
330
1F
100
AcDbEntity
  8
0
  6
Continuous
 62
     7
100
AcDbLine
 10
6586.8295434417
 20
5150.6461996665
 30
0.0
 11
6586.8295434417
 21
5161.1461985936
 31
0.0
  0
LINE
  5
16D
330
1F
100
AcDbEntity
  8
0
  6
Continuous
 62
     7
100
AcDbLine
 10
6586.8295434417
 20
5150.6461996665
 30
0.0
 11
6586.7804292144
 21
5150.6461996665
 31
0.0
  0
LINE
  5
16E
330
1F
100
AcDbEntity
  8
0
  6
Continuous
 62
     7
100
AcDbLine
 10
6617.4050572814
 20
5175.7687416007
 30
0.0
 11
6619.8050383033
 21
5175.7687416007
 31
0.0
  0
LINE
  5
16F
330
1F
100
AcDbEntity
  8
0
  6
Continuous
 62
     7
100
AcDbLine
 10
6617.4050572814
 20
5277.5236602952
 30
0.0
 11
6619.8050383033
 21
5277.5236602952
 31
0.0
  0
LINE
  5
170
330
1F
100
AcDbEntity
  8
0
  6
Continuous
 62
     7
100
AcDbLine
 10
6593.6952236594
 20
5160.2461982598
 30
0.0
 11
6603.9050224723
 21
5160.2461982598
 31
0.0
  0
LINE
  5
171
330
1F
100
AcDbEntity
  8
0
  6
Continuous
 62
     7
100
AcDbLine
 10
6590.705037445
 20
5160.2461982598
 30
0.0
 11
6593.6952236594
 21
5160.2461982598
 31
0.0
  0
LINE
  5
172
330
1F
100
AcDbEntity
  8
0
  6
Continuous
 62
     7
100
AcDbLine
 10
6328.1612798087
 20
4847.2571557954
 30
0.0
 11
6328.1612798087
 21
4916.8571418717
 31
0.0
  0
LINE
  5
173
330
1F
100
AcDbEntity
  8
0
  6
Continuous
 62
     7
100
AcDbLine
 10
6197.1612676494
 20
4916.8571418717
 30
0.0
 11
6197.1612676494
 21
4847.2571557954
 31
0.0
  0
LINE
  5
174
330
1F
100
AcDbEntity
  8
0
  6
Continuous
 62
     7
100
AcDbLine
 10
6313.5387405269
 20
4847.2571557954
 30
0.0
 11
6211.7838069312
 21
4847.2571557954
 31
0.0
  0
LINE
  5
175
330
1F
100
AcDbEntity
  8
0
  6
Continuous
 62
     7
100
AcDbLine
 10
6192.6612659805
 20
4847.2571557954
 30
0.0
 11
6192.6612659805
 21
4844.8571747735
 31
0.0
  0
LINE
  5
176
330
1F
100
AcDbEntity
  8
0
  6
Continuous
 62
     7
100
AcDbLine
 10
6211.7838069312
 20
4847.2571557954
 30
0.0
 11
6192.6612659805
 21
4847.2571557954
 31
0.0
  0
LINE
  5
177
330
1F
100
AcDbEntity
  8
0
  6
Continuous
 62
     7
100
AcDbLine
 10
6332.6612814777
 20
4847.2571557954
 30
0.0
 11
6332.6612814777
 21
4844.8571747735
 31
0.0
  0
LINE
  5
178
330
1F
100
AcDbEntity
  8
0
  6
Continuous
 62
     7
100
AcDbLine
 10
6313.5387405269
 20
4847.2571557954
 30
0.0
 11
6332.6612814777
 21
4847.2571557954
 31
0.0
  0
LINE
  5
179
330
1F
100
AcDbEntity
  8
0
  6
Continuous
 62
     7
100
AcDbLine
 10
6311.6759761684
 20
4847.2571557954
 30
0.0
 11
6311.6759761684
 21
4916.8571418717
 31
0.0
  0
LINE
  5
17A
330
1F
100
AcDbEntity
  8
0
  6
Continuous
 62
     7
100
AcDbLine
 10
6317.0901938789
 20
4916.8571418717
 30
0.0
 11
6311.6759761684
 21
4916.8571418717
 31
0.0
  0
LINE
  5
17B
330
1F
100
AcDbEntity
  8
0
  6
Continuous
 62
     7
100
AcDbLine
 10
6317.0901938789
 20
4847.2571557954
 30
0.0
 11
6317.0901938789
 21
4916.8571418717
 31
0.0
  0
LINE
  5
17C
330
1F
100
AcDbEntity
  8
0
  6
Continuous
 62
     7
100
AcDbLine
 10
6213.6465414874
 20
4916.8571418717
 30
0.0
 11
6311.6759761684
 21
4916.8571418717
 31
0.0
  0
LINE
  5
17D
330
1F
100
AcDbEntity
  8
0
  6
Continuous
 62
     7
100
AcDbLine
 10
6213.6465414874
 20
4847.2571557954
 30
0.0
 11
6213.6465414874
 21
4916.8571418717
 31
0.0
  0
LINE
  5
17E
330
1F
100
AcDbEntity
  8
0
  6
Continuous
 62
     7
100
AcDbLine
 10
6208.2323237769
 20
4916.8571418717
 30
0.0
 11
6213.6465414874
 21
4916.8571418717
 31
0.0
  0
LINE
  5
17F
330
1F
100
AcDbEntity
  8
0
  6
Continuous
 62
     7
100
AcDbLine
 10
6208.2323237769
 20
4847.2571557954
 30
0.0
 11
6208.2323237769
 21
4916.8571418717
 31
0.0
  0
LINE
  5
180
330
1F
100
AcDbEntity
  8
0
  6
Continuous
 62
     7
100
AcDbLine
 10
6321.332852494
 20
4847.2571557954
 30
0.0
 11
6321.332852494
 21
4916.8571418717
 31
0.0
  0
LINE
  5
181
330
1F
100
AcDbEntity
  8
0
  6
Continuous
 62
     7
100
AcDbLine
 10
6328.1612798087
 20
4916.8571418717
 30
0.0
 11
6321.332852494
 21
4916.8571418717
 31
0.0
  0
LINE
  5
182
330
1F
100
AcDbEntity
  8
0
  6
Continuous
 62
     7
100
AcDbLine
 10
6203.9896949642
 20
4847.2571557954
 30
0.0
 11
6203.9896949642
 21
4916.8571418717
 31
0.0
  0
LINE
  5
183
330
1F
100
AcDbEntity
  8
0
  6
Continuous
 62
     7
100
AcDbLine
 10
6197.1612676494
 20
4916.8571418717
 30
0.0
 11
6203.9896949642
 21
4916.8571418717
 31
0.0
  0
LINE
  5
184
330
1F
100
AcDbEntity
  8
0
  6
Continuous
 62
     7
100
AcDbLine
 10
6321.332852494
 20
4916.8571418717
 30
0.0
 11
6317.0901938789
 21
4916.8571418717
 31
0.0
  0
LINE
  5
185
330
1F
100
AcDbEntity
  8
0
  6
Continuous
 62
     7
100
AcDbLine
 10
6203.9896949642
 20
4916.8571418717
 30
0.0
 11
6208.2323237769
 21
4916.8571418717
 31
0.0
  0
LINE
  5
186
330
1F
100
AcDbEntity
  8
0
  6
Continuous
 62
     7
100
AcDbLine
 10
6197.1612676494
 20
4847.2571557954
 30
0.0
 11
6197.1612676494
 21
4916.8571418717
 31
0.0
  0
LINE
  5
187
330
1F
100
AcDbEntity
  8
0
  6
Continuous
 62
     7
100
AcDbLine
 10
6328.1612798087
 20
4847.2571557954
 30
0.0
 11
6328.1612798087
 21
4916.8571418717
 31
0.0
  0
LINE
  5
188
330
1F
100
AcDbEntity
  8
0
  6
Continuous
 62
     7
100
AcDbLine
 10
6315.9564837329
 20
4834.8321503594
 30
0.0
 11
6299.5983466022
 21
4834.8321503594
 31
0.0
  0
LINE
  5
189
330
1F
100
AcDbEntity
  8
0
  6
Continuous
 62
     7
100
AcDbLine
 10
6299.5983466022
 20
4834.8321503594
 30
0.0
 11
6299.5983466022
 21
4834.8571843102
 31
0.0
  0
LINE
  5
18A
330
1F
100
AcDbEntity
  8
0
  6
Continuous
 62
     7
100
AcDbLine
 10
6315.9564837329
 20
4834.8321503594
 30
0.0
 11
6315.9564837329
 21
4834.8571843102
 31
0.0
  0
LINE
  5
18B
330
1F
100
AcDbEntity
  8
0
  6
Continuous
 62
     7
100
AcDbLine
 10
6297.936300885
 20
4834.8321503594
 30
0.0
 11
6297.936300885
 21
4834.8571843102
 31
0.0
  0
LINE
  5
18C
330
1F
100
AcDbEntity
  8
0
  6
Continuous
 62
     7
100
AcDbLine
 10
6297.6683482044
 20
4834.8321503594
 30
0.0
 11
6297.6683482044
 21
4834.8571843102
 31
0.0
  0
LINE
  5
18D
330
1F
100
AcDbEntity
  8
0
  6
Continuous
 62
     7
100
AcDbLine
 10
6297.8383704536
 20
4834.8321503594
 30
0.0
 11
6297.6683482044
 21
4834.8321503594
 31
0.0
  0
LINE
  5
18E
330
1F
100
AcDbEntity
  8
0
  6
Continuous
 62
     7
100
AcDbLine
 10
6321.0496708267
 20
4834.8321503594
 30
0.0
 11
6321.0496708267
 21
4834.8571843102
 31
0.0
  0
LINE
  5
18F
330
1F
100
AcDbEntity
  8
0
  6
Continuous
 62
     7
100
AcDbLine
 10
6319.1781445854
 20
4834.8321503594
 30
0.0
 11
6319.1781445854
 21
4834.8571843102
 31
0.0
  0
LINE
  5
190
330
1F
100
AcDbEntity
  8
0
  6
Continuous
 62
     7
100
AcDbLine
 10
6316.7077406757
 20
4834.8321503594
 30
0.0
 11
6316.7077406757
 21
4834.8571843102
 31
0.0
  0
LINE
  5
191
330
1F
100
AcDbEntity
  8
0
  6
Continuous
 62
     7
100
AcDbLine
 10
6318.4728428237
 20
4834.8321503594
 30
0.0
 11
6318.4728428237
 21
4834.8571843102
 31
0.0
  0
LINE
  5
192
330
1F
100
AcDbEntity
  8
0
  6
Continuous
 62
     7
100
AcDbLine
 10
6322.0557376258
 20
4834.8321503594
 30
0.0
 11
6322.0557376258
 21
4834.8571843102
 31
0.0
  0
LINE
  5
193
330
1F
100
AcDbEntity
  8
0
  6
Continuous
 62
     7
100
AcDbLine
 10
6321.8936427944
 20
4834.8321503594
 30
0.0
 11
6321.8936427944
 21
4834.8571843102
 31
0.0
  0
LINE
  5
194
330
1F
100
AcDbEntity
  8
0
  6
Continuous
 62
     7
100
AcDbLine
 10
6322.2266539447
 20
4834.8321503594
 30
0.0
 11
6322.2266539447
 21
4834.8571843102
 31
0.0
  0
LINE
  5
195
330
1F
100
AcDbEntity
  8
0
  6
Continuous
 62
     7
100
AcDbLine
 10
6322.2871228568
 20
4834.8321503594
 30
0.0
 11
6322.2871228568
 21
4834.8571843102
 31
0.0
  0
LINE
  5
196
330
1F
100
AcDbEntity
  8
0
  6
Continuous
 62
     7
100
AcDbLine
 10
6322.3549231403
 20
4834.8321503594
 30
0.0
 11
6322.3549231403
 21
4834.8571843102
 31
0.0
  0
LINE
  5
197
330
1F
100
AcDbEntity
  8
0
  6
Continuous
 62
     7
100
AcDbLine
 10
6322.0812186115
 20
4834.8321503594
 30
0.0
 11
6321.4997753017
 21
4834.8321503594
 31
0.0
  0
LINE
  5
198
330
1F
100
AcDbEntity
  8
0
  6
Continuous
 62
     7
100
AcDbLine
 10
6322.0812186115
 20
4834.8321503594
 30
0.0
 11
6322.6626619213
 21
4834.8321503594
 31
0.0
  0
LINE
  5
199
330
1F
100
AcDbEntity
  8
0
  6
Continuous
 62
     7
100
AcDbLine
 10
6337.6612671726
 20
4844.8571843102
 30
0.0
 11
6187.6612802856
 21
4844.8571843102
 31
0.0
  0
LINE
  5
19A
330
1F
100
AcDbEntity
  8
0
  6
Continuous
 62
     7
100
AcDbLine
 10
6337.6612671726
 20
4844.8571843102
 30
0.0
 11
6337.6612767093
 21
4834.8571843102
 31
0.0
  0
LINE
  5
19B
330
1F
100
AcDbEntity
  8
0
  6
Continuous
 62
     7
100
AcDbLine
 10
6337.6612767093
 20
4834.8571843102
 30
0.0
 11
6187.6612707488
 21
4834.8571843102
 31
0.0
  0
LINE
  5
19C
330
1F
100
AcDbEntity
  8
0
  6
Continuous
 62
     7
100
AcDbLine
 10
6187.6612802856
 20
4844.8571843102
 30
0.0
 11
6187.6612707488
 21
4834.8571843102
 31
0.0
  0
LINE
  5
19D
330
1F
100
AcDbEntity
  8
0
  6
Continuous
 62
     7
100
AcDbLine
 10
6347.6612671726
 20
4844.8571747735
 30
0.0
 11
6337.6612671726
 21
4844.8571843102
 31
0.0
  0
LINE
  5
19E
330
1F
100
AcDbEntity
  8
0
  6
Continuous
 62
     7
100
AcDbLine
 10
6187.6612802856
 20
4844.8571843102
 30
0.0
 11
6177.6612802856
 21
4844.8571747735
 31
0.0
  0
LINE
  5
19F
330
1F
100
AcDbEntity
  8
0
  6
Continuous
 62
     7
100
AcDbLine
 10
6269.93982042
 20
4890.0742715791
 30
0.0
 11
6269.4780036323
 21
4888.1505316689
 31
0.0
  0
LINE
  5
1A0
330
1F
100
AcDbEntity
  8
0
  6
Continuous
 62
     7
100
AcDbLine
 10
6277.4788543098
 20
4888.0297726586
 30
0.0
 11
6273.971418988
 21
4901.4918989137
 31
0.0
  0
LINE
  5
1A1
330
1F
100
AcDbEntity
  8
0
  6
Continuous
 62
     7
100
AcDbLine
 10
6274.049352061
 20
4884.6474474862
 30
0.0
 11
6277.4788543098
 21
4888.0297726586
 31
0.0
  0
LINE
  5
1A2
330
1F
100
AcDbEntity
  8
0
  6
Continuous
 62
     7
100
AcDbLine
 10
6258.9424356334
 20
4905.6306666329
 30
0.0
 11
6256.1174734943
 21
4902.8445667222
 31
0.0
  0
LINE
  5
1A3
330
1F
100
AcDbEntity
  8
0
  6
Continuous
 62
     7
100
AcDbLine
 10
6273.971418988
 20
4901.4918989137
 30
0.0
 11
6269.1619798057
 21
4902.8163737252
 31
0.0
  0
LINE
  5
1A4
330
1F
100
AcDbEntity
  8
0
  6
Continuous
 62
     7
100
AcDbLine
 10
6262.7677127235
 20
4904.5772141412
 30
0.0
 11
6258.9424356334
 21
4905.6306666329
 31
0.0
  0
LINE
  5
1A5
330
1F
100
AcDbEntity
  8
0
  6
Continuous
 62
     7
100
AcDbLine
 10
6251.3510986678
 20
4881.2224453881
 30
0.0
 11
6255.9847637527
 21
4879.9463695481
 31
0.0
  0
LINE
  5
1A6
330
1F
100
AcDbEntity
  8
0
  6
Continuous
 62
     7
100
AcDbLine
 10
6247.843663346
 20
4894.6845716431
 30
0.0
 11
6251.3510986678
 21
4881.2224453881
 31
0.0
  0
LINE
  5
1A7
330
1F
100
AcDbEntity
  8
0
  6
Continuous
 62
     7
100
AcDbLine
 10
6251.2655660026
 20
4898.0593866303
 30
0.0
 11
6247.843663346
 21
4894.6845716431
 31
0.0
  0
LINE
  5
1A8
330
1F
100
AcDbEntity
  8
0
  6
Continuous
 62
     7
100
AcDbLine
 10
6262.4825044982
 20
4878.1569785073
 30
0.0
 11
6266.3801118247
 21
4877.0836776688
 31
0.0
  0
LINE
  5
1A9
330
1F
100
AcDbEntity
  8
0
  6
Continuous
 62
     7
100
AcDbLine
 10
6266.3801118247
 20
4877.0836776688
 30
0.0
 11
6269.3909510486
 21
4880.0531214669
 31
0.0
  0
LINE
  5
1AA
330
1F
100
AcDbEntity
  8
0
  6
Continuous
 62
     7
100
AcDbLine
 10
6211.7838069312
 20
4847.2571557954
 30
0.0
 11
6211.7838069312
 21
4844.8571747735
 31
0.0
  0
LINE
  5
1AB
330
1F
100
AcDbEntity
  8
0
  6
Continuous
 62
     7
100
AcDbLine
 10
6313.5387405269
 20
4847.2571557954
 30
0.0
 11
6313.5387405269
 21
4844.8571747735
 31
0.0
  0
LWPOLYLINE
  5
1AC
330
1F
100
AcDbEntity
  8
0
  6
Continuous
 62
     7
100
AcDbPolyline
 90
        3
 70
   128
 43
0.0
 10
6275.8712768555
 20
5309.8130051126
 10
6275.3973483985
 20
5310.0886231865
 10
6275.0224872939
 20
5310.3051830163
  0
LWPOLYLINE
  5
1AD
330
1F
100
AcDbEntity
  8
0
  6
Continuous
 62
     7
100
AcDbPolyline
 90
        3
 70
   128
 43
0.0
 10
6249.4468688965
 20
5310.1927686562
 10
6249.88084942
 20
5309.9427808821
 10
6250.2208455913
 20
5309.7463671198
  0
LWPOLYLINE
  5
1AE
330
1F
100
AcDbEntity
  8
0
  6
Continuous
 62
     7
100
AcDbPolyline
 90
        4
 70
   128
 43
0.0
 10
6303.0204772949
 20
5162.6802433362
 10
6302.994280553
 20
5163.3840528255
 10
6302.8899504323
 20
5163.7176353793
 10
6302.5975033157
 20
5163.8837877741
  0
LWPOLYLINE
  5
1AF
330
1F
100
AcDbEntity
  8
0
  6
Continuous
 62
     7
100
AcDbPolyline
 90
        4
 70
   128
 43
0.0
 10
6302.3262023926
 20
5163.8837877741
 10
6302.034638886
 20
5163.7151778547
 10
6301.930783964
 20
5163.3800600941
 10
6301.9034668319
 20
5162.6736942758
  0
LWPOLYLINE
  5
1B0
330
1F
100
AcDbEntity
  8
0
  6
Continuous
 62
     7
100
AcDbPolyline
 90
        3
 70
   128
 43
0.0
 10
6302.5970458984
 20
5164.5883482029
 10
6303.4950356129
 20
5164.0864459822
 10
6303.721170079
 20
5163.2917571892
  0
LWPOLYLINE
  5
1B1
330
1F
100
AcDbEntity
  8
0
  6
Continuous
 62
     7
100
AcDbPolyline
 90
        3
 70
   128
 43
0.0
 10
6301.2161254883
 20
5163.3012194266
 10
6301.581452551
 20
5164.2699957442
 10
6302.3269876354
 20
5164.5883482029
  0
LWPOLYLINE
  5
1B2
330
1F
100
AcDbEntity
  8
0
  6
Continuous
 62
     7
100
AcDbPolyline
 90
        3
 70
   128
 43
0.0
 10
6297.9354858398
 20
5164.3339593043
 10
6298.064813777
 20
5163.4154954441
 10
6298.4884783141
 20
5162.8169689407
  0
LWPOLYLINE
  5
1B3
330
1F
100
AcDbEntity
  8
0
  6
Continuous
 62
     7
100
AcDbPolyline
 90
        3
 70
   128
 43
0.0
 10
6299.5948791504
 20
5165.7654132774
 10
6298.3504297275
 20
5165.2976789426
 10
6297.9363008849
 20
5164.3339593043
  0
LWPOLYLINE
  5
1B4
330
1F
100
AcDbEntity
  8
0
  6
Continuous
 62
     7
100
AcDbPolyline
 90
        3
 70
   128
 43
0.0
 10
6298.7365722656
 20
5164.281700932
 10
6299.0893100018
 20
5164.8822994237
 10
6299.648891341
 20
5165.0005403986
  0
LWPOLYLINE
  5
1B5
330
1F
100
AcDbEntity
  8
0
  6
Continuous
 62
     7
100
AcDbPolyline
 90
        3
 70
   128
 43
0.0
 10
6299.4766235352
 20
5162.8828544249
 10
6298.8984349352
 20
5163.5892197371
 10
6298.7403079383
 20
5164.281700932
  0
LWPOLYLINE
  5
1B6
330
1F
100
AcDbEntity
  8
0
  6
Continuous
 62
     7
100
AcDbPolyline
 90
        3
 70
   128
 43
0.0
 10
6300.6401062012
 20
5160.5690095653
 10
6300.559228374
 20
5161.4817403582
 10
6300.1715942733
 20
5162.0919529428
  0
LWPOLYLINE
  5
1B7
330
1F
100
AcDbEntity
  8
0
  6
Continuous
 62
     7
100
AcDbPolyline
 90
        3
 70
   128
 43
0.0
 10
6299.2286682129
 20
5159.3663666477
 10
6300.2950757658
 20
5159.7388315082
 10
6300.6424113624
 20
5160.5690095653
  0
LWPOLYLINE
  5
1B8
330
1F
100
AcDbEntity
  8
0
  6
Continuous
 62
     7
100
AcDbPolyline
 90
        3
 70
   128
 43
0.0
 10
6299.8428344727
 20
5160.7207927932
 10
6299.5880173248
 20
5160.2426281938
 10
6299.1651698463
 20
5160.1441700091
  0
LWPOLYLINE
  5
1B9
330
1F
100
AcDbEntity
  8
0
  6
Continuous
 62
     7
100
AcDbPolyline
 90
        3
 70
   128
 43
0.0
 10
6299.430847168
 20
5161.7483843198
 10
6299.8061767749
 20
5161.2224700364
 10
6299.8433216922
 20
5160.7207927932
  0
LWPOLYLINE
  5
1BA
330
1F
100
AcDbEntity
  8
0
  6
Continuous
 62
     7
100
AcDbPolyline
 90
        3
 70
   128
 43
0.0
 10
6320.7092285156
 20
5164.0446532597
 10
6319.965737147
 20
5163.8800884204
 10
6319.4443389289
 20
5163.5833207597
  0
LWPOLYLINE
  5
1BB
330
1F
100
AcDbEntity
  8
0
  6
Continuous
 62
     7
100
AcDbPolyline
 90
        3
 70
   128
 43
0.0
 10
6317.9016113281
 20
5163.822819673
 10
6317.4133470315
 20
5164.0316664315
 10
6317.0005186908
 20
5164.1067314973
  0
LWPOLYLINE
  5
1BC
330
1F
100
AcDbEntity
  8
0
  6
Continuous
 62
     7
100
AcDbPolyline
 90
        3
 70
   128
 43
0.0
 10
6318.7980651855
 20
5163.4503129949
 10
6318.2833398183
 20
5163.6179877527
 10
6317.9051979892
 20
5163.822819673
  0
LWPOLYLINE
  5
1BD
330
1F
100
AcDbEntity
  8
0
  6
Continuous
 62
     7
100
AcDbPolyline
 90
        3
 70
   128
 43
0.0
 10
6318.6378479004
 20
5163.6631835332
 10
6318.6653316001
 20
5163.6203285695
 10
6318.7034531944
 20
5163.6099714865
  0
LWPOLYLINE
  5
1BE
330
1F
100
AcDbEntity
  8
0
  6
Continuous
 62
     7
100
AcDbPolyline
 90
        3
 70
   128
 43
0.0
 10
6319.1719055176
 20
5163.6631835332
 10
6319.1484725722
 20
5163.7044262296
 10
6319.1115661971
 20
5163.7163955798
  0
LWPOLYLINE
  5
1BF
330
1F
100
AcDbEntity
  8
0
  6
Continuous
 62
     7
100
AcDbPolyline
 90
        3
 70
   128
 43
0.0
 10
6319.1108703613
 20
5163.6099714865
 10
6319.1570488144
 20
5163.6286259528
 10
6319.1737338416
 20
5163.6631835332
  0
LWPOLYLINE
  5
1C0
330
1F
100
AcDbEntity
  8
0
  6
Continuous
 62
     7
100
AcDbPolyline
 90
        3
 70
   128
 43
0.0
 10
6318.84765625
 20
5165.7211344769
 10
6320.0710091049
 20
5165.2991008809
 10
6320.6637903564
 20
5164.4704017868
  0
LWPOLYLINE
  5
1C1
330
1F
100
AcDbEntity
  8
0
  6
Continuous
 62
     7
100
AcDbPolyline
 90
        3
 70
   128
 43
0.0
 10
6317.2073364258
 20
5166.3420844903
 10
6317.9113270105
 20
5166.0570345929
 10
6318.4197648876
 20
5165.7433260312
  0
LWPOLYLINE
  5
1C2
330
1F
100
AcDbEntity
  8
0
  6
Continuous
 62
     7
100
AcDbPolyline
 90
        3
 70
   128
 43
0.0
 10
6320.8656311035
 20
5161.9900215497
 10
6320.9505053507
 20
5161.6731137325
 10
6320.9886654727
 20
5161.418897294
  0
LWPOLYLINE
  5
1C3
330
1F
100
AcDbEntity
  8
0
  6
Continuous
 62
     7
100
AcDbPolyline
 90
        3
 70
   128
 43
0.0
 10
6320.8465576172
 20
5163.975578927
 10
6320.1650196205
 20
5163.8518046114
 10
6319.7225436084
 20
5163.5322172274
  0
LWPOLYLINE
  5
1C4
330
1F
100
AcDbEntity
  8
0
  6
Continuous
 62
     7
100
AcDbPolyline
 90
        3
 70
   128
 43
0.0
 10
6319.6830749512
 20
5163.4881619444
 10
6319.4911367716
 20
5163.1646125213
 10
6319.3998142593
 20
5162.8825787534
  0
LWPOLYLINE
  5
1C5
330
1F
100
AcDbEntity
  8
0
  6
Continuous
 62
     7
100
AcDbPolyline
 90
        3
 70
   128
 43
0.0
 10
6317.9969787598
 20
5163.6897895565
 10
6318.5324468873
 20
5161.0280654584
 10
6318.5172780864
 20
5158.8642422189
  0
LWPOLYLINE
  5
1C6
330
1F
100
AcDbEntity
  8
0
  6
Continuous
 62
     7
100
AcDbPolyline
 90
        3
 70
   128
 43
0.0
 10
6318.4356689453
 20
5164.2308954229
 10
6318.5523638829
 20
5164.2868968267
 10
6318.5881778114
 20
5164.3817026248
  0
LWPOLYLINE
  5
1C7
330
1F
100
AcDbEntity
  8
0
  6
Continuous
 62
     7
100
AcDbPolyline
 90
        3
 70
   128
 43
0.0
 10
6319.4389343262
 20
5164.2308954229
 10
6319.5564418414
 20
5164.2853559244
 10
6319.5905193202
 20
5164.3817026248
  0
ARC
  5
1C8
330
1F
100
AcDbEntity
  8
0
  6
Continuous
 62
     7
100
AcDbCircle
 10
6319.3103087524
 20
5163.4860174775
 30
0.0
 40
1.591670424503468
100
AcDbArc
 50
20.1461793787
 51
78.7215580397
  0
LWPOLYLINE
  5
1C9
330
1F
100
AcDbEntity
  8
0
  6
Continuous
 62
     7
100
AcDbPolyline
 90
        6
 70
   128
 43
0.0
 10
6318.9888000488
 20
5163.4458948006
 10
6318.9703470292
 20
5163.4588757955
 10
6318.9595424729
 20
5163.4823335349
 10
6318.9543835392
 20
5163.533754648
 10
6318.9676438001
 20
5163.5835576001
 10
6319.0095826499
 20
5163.6099714865
  0
LWPOLYLINE
  5
1CA
330
1F
100
AcDbEntity
  8
0
  6
Continuous
 62
     7
100
AcDbPolyline
 90
        3
 70
   128
 43
0.0
 10
6319.4427490234
 20
5163.5833207597
 10
6319.2040944317
 20
5163.4578150404
 10
6318.9917608611
 20
5163.4458948006
  0
LWPOLYLINE
  5
1CB
330
1F
100
AcDbEntity
  8
0
  6
Continuous
 62
     7
100
AcDbPolyline
 90
        3
 70
   128
 43
0.0
 10
6319.5571899414
 20
5165.6546194186
 10
6319.6369944013
 20
5165.6209108692
 10
6319.6970030181
 20
5165.5924741258
  0
LWPOLYLINE
  5
1CC
330
1F
100
AcDbEntity
  8
0
  6
Continuous
 62
     7
100
AcDbPolyline
 90
        3
 70
   128
 43
0.0
 10
6320.3010559082
 20
5163.0389217367
 10
6320.4754299644
 20
5162.8036988432
 10
6320.5960496776
 20
5162.6090381374
  0
LWPOLYLINE
  5
1CD
330
1F
100
AcDbEntity
  8
0
  6
Continuous
 62
     7
100
AcDbPolyline
 90
        3
 70
   128
 43
0.0
 10
6318.4394836426
 20
5158.8776458134
 10
6318.4316407826
 20
5161.3972932868
 10
6318.1225463264
 20
5163.348307096
  0
LWPOLYLINE
  5
1CE
330
1F
100
AcDbEntity
  8
0
  6
Continuous
 62
     7
100
AcDbPolyline
 90
        7
 70
   128
 43
0.0
 10
6318.7980651855
 20
5163.6099714865
 10
6318.8241724798
 20
5163.6008218032
 10
6318.8384344259
 20
5163.5798245039
 10
6318.8475772255
 20
5163.5301445569
 10
6318.8384367477
 20
5163.4804639514
 10
6318.8241719082
 20
5163.4594688038
 10
6318.8010259979
 20
5163.4503129949
  0
LWPOLYLINE
  5
1CF
330
1F
100
AcDbEntity
  8
0
  6
Continuous
 62
     7
100
AcDbPolyline
 90
        3
 70
   128
 43
0.0
 10
6319.2520141602
 20
5165.7522108485
 10
6319.8077933525
 20
5166.1182648003
 10
6320.3001722209
 20
5166.2888985207
  0
LWPOLYLINE
  5
1D0
330
1F
100
AcDbEntity
  8
0
  6
Continuous
 62
     7
100
AcDbPolyline
 90
       11
 70
   128
 43
0.0
 10
6319.6182250977
 20
5165.0469500651
 10
6319.0915660194
 20
5164.7831660246
 10
6318.5079314975
 20
5164.8677472915
 10
6318.3349473396
 20
5164.9665752689
 10
6318.2555514826
 20
5165.0266312401
 10
6318.2177065253
 20
5165.0591628271
 10
6318.199441715
 20
5165.0762009601
 10
6318.1911104308
 20
5165.0854490541
 10
6318.1873284601
 20
5165.0904100914
 10
6318.1855565687
 20
5165.0929944069
 10
6318.1845947616
 20
5165.0958184232
  0
LWPOLYLINE
  5
1D1
330
1F
100
AcDbEntity
  8
0
  6
Continuous
 62
     7
100
AcDbPolyline
 90
        3
 70
   128
 43
0.0
 10
6318.1838989258
 20
5165.0958184232
 10
6317.421359148
 20
5164.6153259619
 10
6316.9254466407
 20
5164.1225192775
  0
LWPOLYLINE
  5
1D2
330
1F
100
AcDbEntity
  8
0
  6
Continuous
 62
     7
100
AcDbPolyline
 90
        3
 70
   128
 43
0.0
 10
6316.9250488281
 20
5164.1225192775
 10
6317.9993440856
 20
5164.5589985684
 10
6318.9074798934
 20
5164.6478597154
  0
LWPOLYLINE
  5
1D3
330
1F
100
AcDbEntity
  8
0
  6
Continuous
 62
     7
100
AcDbPolyline
 90
        3
 70
   128
 43
0.0
 10
6318.904876709
 20
5164.6478597154
 10
6320.0293348842
 20
5164.4599361137
 10
6320.806305062
 20
5164.0342149963
  0
LWPOLYLINE
  5
1D4
330
1F
100
AcDbEntity
  8
0
  6
Continuous
 62
     7
100
AcDbPolyline
 90
        3
 70
   128
 43
0.0
 10
6319.694519043
 20
5165.5924741258
 10
6320.2947735041
 20
5166.0511874301
 10
6320.8458229415
 20
5166.2666585376
  0
LWPOLYLINE
  5
1D5
330
1F
100
AcDbEntity
  8
0
  6
Continuous
 62
     7
100
AcDbPolyline
 90
        3
 70
   128
 43
0.0
 10
6320.8427429199
 20
5166.2666585376
 10
6320.6878173298
 20
5165.5676740759
 10
6320.424418103
 20
5165.0691639712
  0
LWPOLYLINE
  5
1D6
330
1F
100
AcDbEntity
  8
0
  6
Continuous
 62
     7
100
AcDbPolyline
 90
        3
 70
   128
 43
0.0
 10
6320.4231262207
 20
5165.0691639712
 10
6320.4774598545
 20
5164.9968673688
 10
6320.5130204074
 20
5164.9360593488
  0
LWPOLYLINE
  5
1D7
330
1F
100
AcDbEntity
  8
0
  6
Continuous
 62
     7
100
AcDbPolyline
 90
        3
 70
   128
 43
0.0
 10
6320.5108642578
 20
5164.9360593488
 10
6320.8916094617
 20
5165.7416224256
 10
6321.0009440296
 20
5166.4307389488
  0
LWPOLYLINE
  5
1D8
330
1F
100
AcDbEntity
  8
0
  6
Continuous
 62
     7
100
AcDbPolyline
 90
        3
 70
   128
 43
0.0
 10
6320.9991455078
 20
5166.4307389488
 10
6320.1302068755
 20
5166.1082412411
 10
6319.5594951026
 20
5165.6546194186
  0
LWPOLYLINE
  5
1D9
330
1F
100
AcDbEntity
  8
0
  6
Continuous
 62
     7
100
AcDbPolyline
 90
        3
 70
   128
 43
0.0
 10
6317.2416687012
 20
5164.9849277069
 10
6316.9668129721
 20
5165.6966130816
 10
6316.9028564803
 20
5166.2932906379
  0
LWPOLYLINE
  5
1DA
330
1F
100
AcDbEntity
  8
0
  6
Continuous
 62
     7
100
AcDbPolyline
 90
        3
 70
   128
 43
0.0
 10
6316.9021606445
 20
5166.2932906379
 10
6317.5230914839
 20
5165.9460104026
 10
6317.9406031482
 20
5165.5747268428
  0
LWPOLYLINE
  5
1DB
330
1F
100
AcDbEntity
  8
0
  6
Continuous
 62
     7
100
AcDbPolyline
 90
        3
 70
   128
 43
0.0
 10
6317.9397583008
 20
5165.5747268428
 10
6318.0216428578
 20
5165.6140974374
 10
6318.0869921558
 20
5165.6413164069
  0
LWPOLYLINE
  5
1DC
330
1F
100
AcDbEntity
  8
0
  6
Continuous
 62
     7
100
AcDbPolyline
 90
        3
 70
   128
 43
0.0
 10
6318.0847167969
 20
5165.6413164069
 10
6317.423831591
 20
5166.1920247483
 10
6316.7874916904
 20
5166.4174359371
  0
LWPOLYLINE
  5
1DD
330
1F
100
AcDbEntity
  8
0
  6
Continuous
 62
     7
100
AcDbPolyline
 90
        3
 70
   128
 43
0.0
 10
6316.7839050293
 20
5166.4174359371
 10
6316.9125298091
 20
5165.545146768
 10
6317.1911641471
 20
5164.9094756772
  0
LWPOLYLINE
  5
1DE
330
1F
100
AcDbEntity
  8
0
  6
Continuous
 62
     7
100
AcDbPolyline
 90
        3
 70
   128
 43
0.0
 10
6319.5877075195
 20
5164.3817026248
 10
6319.5360496432
 20
5164.4983938584
 10
6319.439719569
 20
5164.532476299
  0
LWPOLYLINE
  5
1DF
330
1F
100
AcDbEntity
  8
0
  6
Continuous
 62
     7
100
AcDbPolyline
 90
        3
 70
   128
 43
0.0
 10
6319.4389343262
 20
5164.532476299
 10
6319.3261037339
 20
5164.47679827
 10
6319.2933603637
 20
5164.3817026248
  0
LWPOLYLINE
  5
1E0
330
1F
100
AcDbEntity
  8
0
  6
Continuous
 62
     7
100
AcDbPolyline
 90
        3
 70
   128
 43
0.0
 10
6319.2901611328
 20
5164.3817026248
 10
6319.3456953281
 20
5164.2661348372
 10
6319.439719569
 20
5164.2308954229
  0
LWPOLYLINE
  5
1E1
330
1F
100
AcDbEntity
  8
0
  6
Continuous
 62
     7
100
AcDbPolyline
 90
        3
 70
   128
 43
0.0
 10
6318.5844421387
 20
5164.3817026248
 10
6318.5317407327
 20
5164.4944355257
 10
6318.4373780601
 20
5164.5280581047
  0
LWPOLYLINE
  5
1E2
330
1F
100
AcDbEntity
  8
0
  6
Continuous
 62
     7
100
AcDbPolyline
 90
        3
 70
   128
 43
0.0
 10
6318.4356689453
 20
5164.5280581047
 10
6318.3226238897
 20
5164.4749499642
 10
6318.2865783088
 20
5164.3817026248
  0
LWPOLYLINE
  5
1E3
330
1F
100
AcDbEntity
  8
0
  6
Continuous
 62
     7
100
AcDbPolyline
 90
        3
 70
   128
 43
0.0
 10
6318.2830810547
 20
5164.3817026248
 10
6318.3425792313
 20
5164.2667124298
 10
6318.4373780601
 20
5164.2308954229
  0
LWPOLYLINE
  5
1E4
330
1F
100
AcDbEntity
  8
0
  6
Continuous
 62
     7
100
AcDbPolyline
 90
        3
 70
   128
 43
0.0
 10
6318.1190490723
 20
5163.348307096
 10
6318.0572169337
 20
5162.9702500551
 10
6317.9362222068
 20
5162.6918885936
  0
LWPOLYLINE
  5
1E5
330
1F
100
AcDbEntity
  8
0
  6
Continuous
 62
     7
100
AcDbPolyline
 90
        4
 70
   128
 43
0.0
 10
6317.9359436035
 20
5162.6918885936
 10
6317.1812473423
 20
5160.5655639935
 10
6317.502423562
 20
5159.4957524727
 10
6318.4418186061
 20
5158.8776458134
  0
LWPOLYLINE
  5
1E6
330
1F
100
AcDbEntity
  8
0
  6
Continuous
 62
     7
100
AcDbPolyline
 90
        3
 70
   128
 43
0.0
 10
6318.5157775879
 20
5158.8642422189
 10
6318.6903819936
 20
5158.8368710401
 10
6318.8278182857
 20
5158.8288296094
  0
LWPOLYLINE
  5
1E7
330
1F
100
AcDbEntity
  8
0
  6
Continuous
 62
     7
100
AcDbPolyline
 90
        3
 70
   128
 43
0.0
 10
6318.8247680664
 20
5158.8288296094
 10
6318.794386005
 20
5159.8338333888
 10
6318.86316384
 20
5160.6206644406
  0
LWPOLYLINE
  5
1E8
330
1F
100
AcDbEntity
  8
0
  6
Continuous
 62
     7
100
AcDbPolyline
 90
        3
 70
   128
 43
0.0
 10
6318.8629150391
 20
5160.6206644406
 10
6318.8799737943
 20
5159.6146352389
 10
6318.903098952
 20
5158.8244114151
  0
LWPOLYLINE
  5
1E9
330
1F
100
AcDbEntity
  8
0
  6
Continuous
 62
     7
100
AcDbPolyline
 90
        3
 70
   128
 43
0.0
 10
6318.9010620117
 20
5158.8244114151
 10
6319.0830753463
 20
5158.8350151855
 10
6319.2224010341
 20
5158.8598985305
  0
LWPOLYLINE
  5
1EA
330
1F
100
AcDbEntity
  8
0
  6
Continuous
 62
     7
100
AcDbPolyline
 90
        3
 70
   128
 43
0.0
 10
6319.221496582
 20
5158.8598985305
 10
6319.1596378641
 20
5161.6227724209
 10
6319.7369381301
 20
5163.6720944276
  0
LWPOLYLINE
  5
1EB
330
1F
100
AcDbEntity
  8
0
  6
Continuous
 62
     7
100
AcDbPolyline
 90
        3
 70
   128
 43
0.0
 10
6319.7364807129
 20
5163.6720944276
 10
6319.2847240484
 20
5163.3851172593
 10
6318.8898071163
 20
5163.2506970396
  0
LWPOLYLINE
  5
1EC
330
1F
100
AcDbEntity
  8
0
  6
Continuous
 62
     7
100
AcDbPolyline
 90
        3
 70
   128
 43
0.0
 10
6318.8896179199
 20
5163.2506970396
 10
6318.3778577549
 20
5163.4669262532
 10
6317.9983004444
 20
5163.6897895565
  0
LWPOLYLINE
  5
1ED
330
1F
100
AcDbEntity
  8
0
  6
Continuous
 62
     7
100
AcDbPolyline
 90
        3
 70
   128
 43
0.0
 10
6319.3969726562
 20
5162.8825787534
 10
6319.2154504914
 20
5160.6417133783
 10
6319.2799195163
 20
5158.8733319273
  0
LWPOLYLINE
  5
1EE
330
1F
100
AcDbEntity
  8
0
  6
Continuous
 62
     7
100
AcDbPolyline
 90
        3
 70
   128
 43
0.0
 10
6319.278717041
 20
5158.8733319273
 10
6319.2954679004
 20
5158.8748755863
 10
6319.3076654785
 20
5158.876267456
  0
LWPOLYLINE
  5
1EF
330
1F
100
AcDbEntity
  8
0
  6
Continuous
 62
     7
100
AcDbPolyline
 90
        3
 70
   128
 43
0.0
 10
6319.3054199219
 20
5158.876267456
 10
6320.5275710859
 20
5159.6715158156
 10
6320.97066487
 20
5160.7411701312
  0
LWPOLYLINE
  5
1F0
330
1F
100
AcDbEntity
  8
0
  6
Continuous
 62
     7
100
AcDbPolyline
 90
        3
 70
   128
 43
0.0
 10
6320.9686279297
 20
5160.7411701312
 10
6320.1038019697
 20
5160.6123088114
 10
6319.426040303
 20
5160.7285935511
  0
LWPOLYLINE
  5
1F1
330
1F
100
AcDbEntity
  8
0
  6
Continuous
 62
     7
100
AcDbPolyline
 90
        3
 70
   128
 43
0.0
 10
6319.4236755371
 20
5160.7285935511
 10
6319.4534094924
 20
5160.0023059058
 10
6319.4840356223
 20
5159.4320807686
  0
LWPOLYLINE
  5
1F2
330
1F
100
AcDbEntity
  8
0
  6
Continuous
 62
     7
100
AcDbPolyline
 90
        3
 70
   128
 43
0.0
 10
6319.4808959961
 20
5159.4320807686
 10
6319.3761166036
 20
5161.6692038473
 10
6319.8213085048
 20
5163.3702937593
  0
LWPOLYLINE
  5
1F3
330
1F
100
AcDbEntity
  8
0
  6
Continuous
 62
     7
100
AcDbPolyline
 90
        3
 70
   128
 43
0.0
 10
6319.8204040527
 20
5163.3702937593
 10
6319.744623159
 20
5163.435801231
 10
6319.6851416938
 20
5163.4881619444
  0
LWPOLYLINE
  5
1F4
330
1F
100
AcDbEntity
  8
0
  6
Continuous
 62
     7
100
AcDbPolyline
 90
        3
 70
   128
 43
0.0
 10
6319.7212219238
 20
5163.5322172274
 10
6319.7932320308
 20
5163.4698300282
 10
6319.8494120948
 20
5163.4215463032
  0
LWPOLYLINE
  5
1F5
330
1F
100
AcDbEntity
  8
0
  6
Continuous
 62
     7
100
AcDbPolyline
 90
        3
 70
   128
 43
0.0
 10
6319.8471069336
 20
5163.4215463032
 10
6319.896528027
 20
5163.5007878409
 10
6319.9365242832
 20
5163.5611776342
  0
LWPOLYLINE
  5
1F6
330
1F
100
AcDbEntity
  8
0
  6
Continuous
 62
     7
100
AcDbPolyline
 90
        3
 70
   128
 43
0.0
 10
6319.9348449707
 20
5163.5611776342
 10
6320.9189766708
 20
5162.1840995523
 10
6321.0878177993
 20
5160.8638588419
  0
LWPOLYLINE
  5
1F7
330
1F
100
AcDbEntity
  8
0
  6
Continuous
 62
     7
100
AcDbPolyline
 90
        3
 70
   128
 43
0.0
 10
6321.0868835449
 20
5160.8638588419
 10
6320.2644752845
 20
5159.2320548863
 10
6318.9075394981
 20
5158.7416280141
  0
LWPOLYLINE
  5
1F8
330
1F
100
AcDbEntity
  8
0
  6
Continuous
 62
     7
100
AcDbPolyline
 90
        3
 70
   128
 43
0.0
 10
6318.904876709
 20
5158.7416280141
 10
6317.3285446631
 20
5159.5746267025
 10
6317.1378477924
 20
5160.9976414671
  0
LWPOLYLINE
  5
1F9
330
1F
100
AcDbEntity
  8
0
  6
Continuous
 62
     7
100
AcDbPolyline
 90
        3
 70
   128
 43
0.0
 10
6317.1348571777
 20
5160.9976414671
 10
6317.5596466311
 20
5162.1503681821
 10
6317.9717465751
 20
5163.0245942702
  0
LWPOLYLINE
  5
1FA
330
1F
100
AcDbEntity
  8
0
  6
Continuous
 62
     7
100
AcDbPolyline
 90
        4
 70
   128
 43
0.0
 10
6317.9702758789
 20
5163.0245942702
 10
6317.9981770387
 20
5163.4708406415
 10
6317.7168876644
 20
5163.8169635787
 10
6316.8584808223
 20
5164.089006566
  0
LWPOLYLINE
  5
1FB
330
1F
100
AcDbEntity
  8
0
  6
Continuous
 62
     7
100
AcDbPolyline
 90
        3
 70
   128
 43
0.0
 10
6316.8563842773
 20
5164.089006566
 10
6316.9961952738
 20
5164.5264756503
 10
6317.1512290351
 20
5164.8518491616
  0
LWPOLYLINE
  5
1FC
330
1F
100
AcDbEntity
  8
0
  6
Continuous
 62
     7
100
AcDbPolyline
 90
        3
 70
   128
 43
0.0
 10
6317.1501159668
 20
5164.8518491616
 10
6316.7806539347
 20
5165.7434891588
 10
6316.7077406757
 20
5166.5017467072
  0
LWPOLYLINE
  5
1FD
330
1F
100
AcDbEntity
  8
0
  6
Continuous
 62
     7
100
AcDbPolyline
 90
        3
 70
   128
 43
0.0
 10
6316.707611084
 20
5166.5017467072
 10
6317.7438607461
 20
5166.1966547757
 10
6318.4728428237
 20
5165.7610435118
  0
LWPOLYLINE
  5
1FE
330
1F
100
AcDbEntity
  8
0
  6
Continuous
 62
     7
100
AcDbPolyline
 90
        3
 70
   128
 43
0.0
 10
6318.4700012207
 20
5165.7610435118
 10
6318.8678430112
 20
5165.7951570011
 10
6319.1781445854
 20
5165.7654617061
  0
LWPOLYLINE
  5
1FF
330
1F
100
AcDbEntity
  8
0
  6
Continuous
 62
     7
100
AcDbPolyline
 90
        3
 70
   128
 43
0.0
 10
6319.1757202148
 20
5165.7654617061
 10
6320.1684444066
 20
5166.3266697145
 10
6321.0496708267
 20
5166.5106054475
  0
LWPOLYLINE
  5
200
330
1F
100
AcDbEntity
  8
0
  6
Continuous
 62
     7
100
AcDbPolyline
 90
        3
 70
   128
 43
0.0
 10
6321.0487365723
 20
5166.5106054475
 10
6320.8874144493
 20
5165.547551284
 10
6320.553104531
 20
5164.8562636306
  0
LWPOLYLINE
  5
201
330
1F
100
AcDbEntity
  8
0
  6
Continuous
 62
     7
100
AcDbPolyline
 90
        3
 70
   128
 43
0.0
 10
6320.5528259277
 20
5164.8562636306
 10
6320.8014805064
 20
5164.3854288793
 10
6320.8469852321
 20
5163.975578927
  0
LWPOLYLINE
  5
202
330
1F
100
AcDbEntity
  8
0
  6
Continuous
 62
     7
100
AcDbPolyline
 90
        3
 70
   128
 43
0.0
 10
6319.5190429688
 20
5161.9359303345
 10
6320.2832468285
 20
5161.846094821
 10
6320.8691879623
 20
5161.9900215497
  0
LWPOLYLINE
  5
203
330
1F
100
AcDbEntity
  8
0
  6
Continuous
 62
     7
100
AcDbPolyline
 90
        3
 70
   128
 43
0.0
 10
6319.4541931152
 20
5161.3806460132
 10
6319.4862245117
 20
5161.6921878431
 10
6319.5194705837
 20
5161.9359303345
  0
LWPOLYLINE
  5
204
330
1F
100
AcDbEntity
  8
0
  6
Continuous
 62
     7
100
AcDbPolyline
 90
        3
 70
   128
 43
0.0
 10
6320.987701416
 20
5161.418897294
 10
6320.1285922341
 20
5161.2508560981
 10
6319.4550975673
 20
5161.3806460132
  0
LWPOLYLINE
  5
205
330
1F
100
AcDbEntity
  8
0
  6
Continuous
 62
     7
100
AcDbPolyline
 90
        3
 70
   128
 43
0.0
 10
6319.7746276855
 20
5162.9904035558
 10
6320.0746571367
 20
5162.9871258176
 10
6320.3033312671
 20
5163.0389217367
  0
LWPOLYLINE
  5
206
330
1F
100
AcDbEntity
  8
0
  6
Continuous
 62
     7
100
AcDbPolyline
 90
        3
 70
   128
 43
0.0
 10
6319.637298584
 20
5162.5291679134
 10
6319.7104054947
 20
5162.789029278
 10
6319.776306998
 20
5162.9904035558
  0
LWPOLYLINE
  5
207
330
1F
100
AcDbEntity
  8
0
  6
Continuous
 62
     7
100
AcDbPolyline
 90
        3
 70
   128
 43
0.0
 10
6320.5947875977
 20
5162.6090381374
 10
6320.0644698119
 20
5162.4782443164
 10
6319.6383222453
 20
5162.5291679134
  0
LWPOLYLINE
  5
208
330
1F
100
AcDbEntity
  8
0
  6
Continuous
 62
     7
100
AcDbPolyline
 90
        3
 70
   128
 43
0.0
 10
6318.1304931641
 20
5165.6634558072
 10
6317.6586052298
 20
5166.1047189847
 10
6317.2088667266
 20
5166.3420844903
  0
LWPOLYLINE
  5
209
330
1F
100
AcDbEntity
  8
0
  6
Continuous
 62
     7
100
AcDbPolyline
 90
        3
 70
   128
 43
0.0
 10
6318.416595459
 20
5165.7433260312
 10
6318.255914528
 20
5165.7067840679
 10
6318.1313678138
 20
5165.6634558072
  0
LWPOLYLINE
  5
20A
330
1F
100
AcDbEntity
  8
0
  6
Continuous
 62
     7
100
AcDbPolyline
 90
        3
 70
   128
 43
0.0
 10
6317.008972168
 20
5164.3551189532
 10
6317.813844978
 20
5165.443519043
 10
6318.8498422019
 20
5165.7211344769
  0
LWPOLYLINE
  5
20B
330
1F
100
AcDbEntity
  8
0
  6
Continuous
 62
     7
100
AcDbPolyline
 90
        3
 70
   128
 43
0.0
 10
6318.2106018066
 20
5165.1711698701
 10
6317.5057607171
 20
5164.7616975669
 10
6317.0091911666
 20
5164.3551189532
  0
LWPOLYLINE
  5
20C
330
1F
100
AcDbEntity
  8
0
  6
Continuous
 62
     7
100
AcDbPolyline
 90
        3
 70
   128
 43
0.0
 10
6319.6105957031
 20
5165.1268165638
 10
6318.8061578511
 20
5164.8451578026
 10
6318.2111486308
 20
5165.1711698701
  0
LWPOLYLINE
  5
20D
330
1F
100
AcDbEntity
  8
0
  6
Continuous
 62
     7
100
AcDbPolyline
 90
        3
 70
   128
 43
0.0
 10
6320.6634521484
 20
5164.4704017868
 10
6320.1061853401
 20
5164.8867523412
 10
6319.6126624458
 20
5165.1268165638
  0
LWPOLYLINE
  5
20E
330
1F
100
AcDbEntity
  8
0
  6
Continuous
 62
     7
100
AcDbPolyline
 90
        3
 70
   128
 43
0.0
 10
6319.5037841797
 20
5165.6768594017
 10
6319.3652872997
 20
5165.7210637519
 10
6319.253455054
 20
5165.7522108485
  0
LWPOLYLINE
  5
20F
330
1F
100
AcDbEntity
  8
0
  6
Continuous
 62
     7
100
AcDbPolyline
 90
        3
 70
   128
 43
0.0
 10
6320.2972412109
 20
5166.2888985207
 10
6319.8258409272
 20
5165.9835200993
 10
6319.5062681548
 20
5165.6768594017
  0
LWPOLYLINE
  5
210
330
1F
100
AcDbEntity
  8
0
  6
Continuous
 62
     7
100
AcDbPolyline
 90
        3
 70
   128
 43
0.0
 10
6319.5114135742
 20
5163.8672027816
 10
6320.1723979668
 20
5164.0703669349
 10
6320.7127853744
 20
5164.0446532597
  0
LWPOLYLINE
  5
211
330
1F
100
AcDbEntity
  8
0
  6
Continuous
 62
     7
100
AcDbPolyline
 90
        3
 70
   128
 43
0.0
 10
6318.3288574219
 20
5163.813990735
 10
6318.993241377
 20
5164.2678155463
 10
6319.5150896423
 20
5163.8672027816
  0
LWPOLYLINE
  5
212
330
1F
100
AcDbEntity
  8
0
  6
Continuous
 62
     7
100
AcDbPolyline
 90
        3
 70
   128
 43
0.0
 10
6316.9975280762
 20
5164.1067314973
 10
6317.7632543757
 20
5164.0316727602
 10
6318.3309241645
 20
5163.813990735
  0
LWPOLYLINE
  5
213
330
1F
100
AcDbEntity
  8
0
  6
Continuous
 62
     7
100
AcDbPolyline
 90
        3
 70
   128
 43
0.0
 10
6318.7026977539
 20
5163.7163955798
 10
6318.6597100319
 20
5163.6961203975
 10
6318.6413749568
 20
5163.6631835332
  0
LWPOLYLINE
  5
214
330
1F
100
AcDbEntity
  8
0
  6
Continuous
 62
     7
100
AcDbPolyline
 90
        3
 70
   128
 43
0.0
 10
6319.4999694824
 20
5164.3816728224
 10
6319.4796196257
 20
5164.4283470749
 10
6319.4411202781
 20
5164.4419629206
  0
LWPOLYLINE
  5
215
330
1F
100
AcDbEntity
  8
0
  6
Continuous
 62
     7
100
AcDbPolyline
 90
        3
 70
   128
 43
0.0
 10
6319.4389343262
 20
5164.3213827243
 10
6319.4877279365
 20
5164.3431732765
 10
6319.5013209693
 20
5164.3816728224
  0
LWPOLYLINE
  5
216
330
1F
100
AcDbEntity
  8
0
  6
Continuous
 62
     7
100
AcDbPolyline
 90
        3
 70
   128
 43
0.0
 10
6319.3817138672
 20
5164.3816728224
 10
6319.40348298
 20
5164.3354594634
 10
6319.4411202781
 20
5164.3213827243
  0
LWPOLYLINE
  5
217
330
1F
100
AcDbEntity
  8
0
  6
Continuous
 62
     7
100
AcDbPolyline
 90
        3
 70
   128
 43
0.0
 10
6319.4389343262
 20
5164.4419629206
 10
6319.3956161159
 20
5164.4197261699
 10
6319.3824693076
 20
5164.3816728224
  0
LWPOLYLINE
  5
218
330
1F
100
AcDbEntity
  8
0
  6
Continuous
 62
     7
100
AcDbPolyline
 90
        3
 70
   128
 43
0.0
 10
6322.1664428711
 20
5165.968497478
 10
6322.1089015471
 20
5165.9384900581
 10
6322.0573469512
 20
5165.9328278234
  0
LWPOLYLINE
  5
219
330
1F
100
AcDbEntity
  8
0
  6
Continuous
 62
     7
100
AcDbPolyline
 90
        3
 70
   128
 43
0.0
 10
6322.2045898438
 20
5166.0729881456
 10
6322.1961954558
 20
5166.009603242
 10
6322.1673175208
 20
5165.968497478
  0
LWPOLYLINE
  5
21A
330
1F
100
AcDbEntity
  8
0
  6
Continuous
 62
     7
100
AcDbPolyline
 90
        3
 70
   128
 43
0.0
 10
6322.0520019531
 20
5166.2052657535
 10
6322.1751811425
 20
5166.166647534
 10
6322.2071632259
 20
5166.0729881456
  0
LWPOLYLINE
  5
21B
330
1F
100
AcDbEntity
  8
0
  6
Continuous
 62
     7
100
AcDbPolyline
 90
        3
 70
   128
 43
0.0
 10
6322.2541809082
 20
5165.9692984154
 10
6322.2817915947
 20
5166.0274008069
 10
6322.2871228568
 20
5166.0766277542
  0
LWPOLYLINE
  5
21C
330
1F
100
AcDbEntity
  8
0
  6
Continuous
 62
     7
100
AcDbPolyline
 90
        3
 70
   128
 43
0.0
 10
6322.1702575684
 20
5165.8966105511
 10
6322.2255699622
 20
5165.9313867299
 10
6322.257558953
 20
5165.9692984154
  0
LWPOLYLINE
  5
21D
330
1F
100
AcDbEntity
  8
0
  6
Continuous
 62
     7
100
AcDbPolyline
 90
        3
 70
   128
 43
0.0
 10
6322.2236633301
 20
5166.223687314
 10
6322.1347369588
 20
5166.2642203843
 10
6322.0557376258
 20
5166.2714269092
  0
LWPOLYLINE
  5
21E
330
1F
100
AcDbEntity
  8
0
  6
Continuous
 62
     7
100
AcDbPolyline
 90
        3
 70
   128
 43
0.0
 10
6322.2846984863
 20
5166.0766277542
 10
6322.2706481466
 20
5166.1666343046
 10
6322.2266539447
 20
5166.223687314
  0
LWPOLYLINE
  5
21F
330
1F
100
AcDbEntity
  8
0
  6
Continuous
 62
     7
100
AcDbPolyline
 90
        4
 70
   128
 43
0.0
 10
6315.2542114258
 20
5162.6802433362
 10
6315.2294749976
 20
5163.3840528255
 10
6315.125144877
 20
5163.7176353793
 10
6314.8326977603
 20
5163.8837877741
  0
LWPOLYLINE
  5
220
330
1F
100
AcDbEntity
  8
0
  6
Continuous
 62
     7
100
AcDbPolyline
 90
        4
 70
   128
 43
0.0
 10
6314.5599365234
 20
5163.8837877741
 10
6314.269863133
 20
5163.7151778547
 10
6314.166008211
 20
5163.3800600941
 10
6314.1386910789
 20
5162.6736942758
  0
LWPOLYLINE
  5
221
330
1F
100
AcDbEntity
  8
0
  6
Continuous
 62
     7
100
AcDbPolyline
 90
        3
 70
   128
 43
0.0
 10
6314.8307800293
 20
5164.5883482029
 10
6315.7302830027
 20
5164.0864599537
 10
6315.9564539306
 20
5163.2917571892
  0
LWPOLYLINE
  5
222
330
1F
100
AcDbEntity
  8
0
  6
Continuous
 62
     7
100
AcDbPolyline
 90
        3
 70
   128
 43
0.0
 10
6313.4498596191
 20
5163.3012194266
 10
6313.8166894008
 20
5164.2699790042
 10
6314.5622118823
 20
5164.5883482029
  0
LWPOLYLINE
  5
223
330
1F
100
AcDbEntity
  8
0
  6
Continuous
 62
     7
100
AcDbPolyline
 90
        3
 70
   128
 43
0.0
 10
6318.4967041016
 20
5164.3803689708
 10
6318.4751468473
 20
5164.4254511601
 10
6318.4373780601
 20
5164.438900732
  0
LWPOLYLINE
  5
224
330
1F
100
AcDbEntity
  8
0
  6
Continuous
 62
     7
100
AcDbPolyline
 90
        3
 70
   128
 43
0.0
 10
6318.4356689453
 20
5164.3200788726
 10
6318.4834258547
 20
5164.3424399841
 10
6318.4977873676
 20
5164.3803689708
  0
LWPOLYLINE
  5
225
330
1F
100
AcDbEntity
  8
0
  6
Continuous
 62
     7
100
AcDbPolyline
 90
        3
 70
   128
 43
0.0
 10
6318.3746337891
 20
5164.3803689708
 10
6318.3994623995
 20
5164.3343845835
 10
6318.4373780601
 20
5164.3200788726
  0
LWPOLYLINE
  5
226
330
1F
100
AcDbEntity
  8
0
  6
Continuous
 62
     7
100
AcDbPolyline
 90
        3
 70
   128
 43
0.0
 10
6318.4356689453
 20
5164.438900732
 10
6318.3914873411
 20
5164.4176658315
 10
6318.3770879619
 20
5164.3803689708
  0
LWPOLYLINE
  5
227
330
1F
100
AcDbEntity
  8
0
  6
Continuous
 62
     7
100
AcDbPolyline
 90
        6
 70
   128
 43
0.0
 10
6218.3723449707
 20
5140.0193322529
 10
6219.9829222616
 20
5140.1460838829
 10
6220.4801276226
 20
5140.3670994639
 10
6220.660583659
 20
5140.6930854118
 10
6220.133111619
 20
5141.4977805652
 10
6218.6612590663
 20
5141.980414473
  0
LWPOLYLINE
  5
228
330
1F
100
AcDbEntity
  8
0
  6
Continuous
 62
     7
100
AcDbPolyline
 90
        6
 70
   128
 43
0.0
 10
6218.6584472656
 20
5141.980414473
 10
6217.157251742
 20
5141.4738586399
 10
6216.7656809177
 20
5141.0504690997
 10
6216.6671906205
 20
5140.6471238548
 10
6217.0559759795
 20
5140.2414318301
 10
6218.375484597
 20
5140.0193322529
  0
LWPOLYLINE
  5
229
330
1F
100
AcDbEntity
  8
0
  6
Continuous
 62
     7
100
AcDbPolyline
 90
        6
 70
   128
 43
0.0
 10
6306.3735961914
 20
5140.0193322529
 10
6307.9829217847
 20
5140.1460838829
 10
6308.4801271458
 20
5140.3670994639
 10
6308.6605831822
 20
5140.6930854118
 10
6308.1331111422
 20
5141.4977805652
 10
6306.6612585895
 20
5141.980414473
  0
LWPOLYLINE
  5
22A
330
1F
100
AcDbEntity
  8
0
  6
Continuous
 62
     7
100
AcDbPolyline
 90
        6
 70
   128
 43
0.0
 10
6306.6596984863
 20
5141.980414473
 10
6305.1572512651
 20
5141.4738586399
 10
6304.7656804409
 20
5141.0504690997
 10
6304.6671901437
 20
5140.6471238548
 10
6305.0559755027
 20
5140.2414318301
 10
6306.3754841201
 20
5140.0193322529
  0
LWPOLYLINE
  5
22B
330
1F
100
AcDbEntity
  8
0
  6
Continuous
 62
     7
100
AcDbPolyline
 90
        3
 70
   128
 43
0.0
 10
6217.0257568359
 20
5141.3403350939
 10
6218.9135290395
 20
5141.0490442103
 10
6220.3155561798
 20
5141.343941175
  0
LWPOLYLINE
  5
22C
330
1F
100
AcDbEntity
  8
0
  6
Continuous
 62
     7
100
AcDbPolyline
 90
        3
 70
   128
 43
0.0
 10
6305.0270080566
 20
5141.3403350939
 10
6306.9135285627
 20
5141.0490442103
 10
6308.3155557029
 20
5141.343941175
  0
LWPOLYLINE
  5
22D
330
1F
100
AcDbEntity
  8
0
  6
Continuous
 62
     7
100
AcDbPolyline
 90
        8
 70
   128
 43
0.0
 10
6249.51171875
 20
5310.1811084976
 10
6249.5244928138
 20
5310.1889588069
 10
6249.5566008639
 20
5310.1967317848
 10
6250.5045215357
 20
5310.2419327585
 10
6262.4638673902
 20
5310.4302999094
 10
6274.4035735636
 20
5310.6193105674
 10
6275.2825631933
 20
5310.6679866163
 10
6275.3345474117
 20
5310.6843728652
  0
LWPOLYLINE
  5
22E
330
1F
100
AcDbEntity
  8
0
  6
Continuous
 62
     7
100
AcDbPolyline
 90
        9
 70
   128
 43
0.0
 10
6274.9481201172
 20
5310.3008542289
 10
6274.9708302335
 20
5310.2910345917
 10
6274.9771551729
 20
5310.2861134174
 10
6274.9783783712
 20
5310.283648004
 10
6274.9780045224
 20
5310.2811786161
 10
6274.9675730784
 20
5310.2745702615
 10
6274.9312270786
 20
5310.2657109602
 10
6273.2231830769
 20
5310.1618205121
 10
6255.5112942569
 20
5309.7463671198
  0
LWPOLYLINE
  5
22F
330
1F
100
AcDbEntity
  8
0
  6
Continuous
 62
     7
100
AcDbPolyline
 90
        6
 70
   128
 43
0.0
 10
6275.8026123047
 20
5309.8042357793
 10
6275.8398942868
 20
5309.7898837233
 10
6275.8404566103
 20
5309.788535494
 10
6275.8402620375
 20
5309.7871865328
 10
6275.8197026349
 20
5309.7790740156
 10
6275.4718467109
 20
5309.7463671198
  0
LWPOLYLINE
  5
230
330
1F
100
AcDbEntity
  8
0
  6
Continuous
 62
     7
100
AcDbPolyline
 90
       10
 70
   128
 43
0.0
 10
6274.959564209
 20
5310.4896370401
 10
6274.9705461372
 20
5310.4837743298
 10
6274.9740204196
 20
5310.4808383411
 10
6274.975188202
 20
5310.4778967922
 10
6274.9732940781
 20
5310.4749478726
 10
6274.9679818135
 20
5310.4719910453
 10
6274.9475306905
 20
5310.466057431
 10
6274.0201975681
 20
5310.3954506954
 10
6263.4477243609
 20
5310.1184308848
 10
6250.4882618301
 20
5309.7463671198
  0
LWPOLYLINE
  5
231
330
1F
100
AcDbEntity
  8
0
  6
Continuous
 62
     7
100
AcDbPolyline
 90
        3
 70
   128
 43
0.0
 10
6560.0891113281
 20
5309.7958985796
 10
6560.5689903236
 20
5309.5202778702
 10
6560.9438422622
 20
5309.3037281265
  0
LWPOLYLINE
  5
232
330
1F
100
AcDbEntity
  8
0
  6
Continuous
 62
     7
100
AcDbPolyline
 90
        3
 70
   128
 43
0.0
 10
6560.0891113281
 20
5308.2083959212
 10
6560.5689877198
 20
5307.9327749105
 10
6560.9438422622
 20
5307.7162329187
  0
LWPOLYLINE
  5
233
330
1F
100
AcDbEntity
  8
0
  6
Continuous
 62
     7
100
AcDbPolyline
 90
        3
 70
   128
 43
0.0
 10
6560.0891113281
 20
5306.6208932628
 10
6560.568991506
 20
5306.3452787724
 10
6560.9438422622
 20
5306.1287302603
  0
LWPOLYLINE
  5
234
330
1F
100
AcDbEntity
  8
0
  6
Continuous
 62
     7
100
AcDbPolyline
 90
        3
 70
   128
 43
0.0
 10
6560.0891113281
 20
5305.033398055
 10
6560.5689903236
 20
5304.7577773457
 10
6560.9438422622
 20
5304.541227602
  0
LWPOLYLINE
  5
235
330
1F
100
AcDbEntity
  8
0
  6
Continuous
 62
     7
100
AcDbPolyline
 90
        3
 70
   128
 43
0.0
 10
6560.0891113281
 20
5303.4458953967
 10
6560.568991506
 20
5303.1702809062
 10
6560.9438422622
 20
5302.9537323942
  0
LWPOLYLINE
  5
236
330
1F
100
AcDbEntity
  8
0
  6
Continuous
 62
     7
100
AcDbPolyline
 90
        3
 70
   128
 43
0.0
 10
6585.6552124023
 20
5308.5054505696
 10
6586.1399088707
 20
5308.7836140305
 10
6586.518228382
 20
5309.0021435251
  0
LWPOLYLINE
  5
237
330
1F
100
AcDbEntity
  8
0
  6
Continuous
 62
     7
100
AcDbPolyline
 90
        3
 70
   128
 43
0.0
 10
6585.6552124023
 20
5306.9179553618
 10
6586.1399120309
 20
5307.1961133522
 10
6586.518228382
 20
5307.4146483173
  0
LWPOLYLINE
  5
238
330
1F
100
AcDbEntity
  8
0
  6
Continuous
 62
     7
100
AcDbPolyline
 90
        3
 70
   128
 43
0.0
 10
6585.6552124023
 20
5305.3304527034
 10
6586.1399088707
 20
5305.6086161643
 10
6586.518228382
 20
5305.8271456589
  0
LWPOLYLINE
  5
239
330
1F
100
AcDbEntity
  8
0
  6
Continuous
 62
     7
100
AcDbPolyline
 90
        3
 70
   128
 43
0.0
 10
6585.6552124023
 20
5303.7429500451
 10
6586.1399088707
 20
5304.021113506
 10
6586.518228382
 20
5304.2396430006
  0
LWPOLYLINE
  5
23A
330
1F
100
AcDbEntity
  8
0
  6
Continuous
 62
     7
100
AcDbPolyline
 90
        3
 70
   128
 43
0.0
 10
6585.6552124023
 20
5310.092953228
 10
6585.9625031915
 20
5310.2686290735
 10
6586.201429695
 20
5310.4066375723
  0
LWPOLYLINE
  5
23B
330
1F
100
AcDbEntity
  8
0
  6
Continuous
 62
     7
100
AcDbPolyline
 90
        3
 70
   128
 43
0.0
 10
6560.9512329102
 20
5309.119072937
 10
6560.4701698209
 20
5308.8409149466
 10
6560.0918534698
 20
5308.6223799815
  0
LWPOLYLINE
  5
23C
330
1F
100
AcDbEntity
  8
0
  6
Continuous
 62
     7
100
AcDbPolyline
 90
        3
 70
   128
 43
0.0
 10
6560.9512329102
 20
5307.5315702786
 10
6560.4701714009
 20
5307.2534137254
 10
6560.0918534698
 20
5307.0348847737
  0
LWPOLYLINE
  5
23D
330
1F
100
AcDbEntity
  8
0
  6
Continuous
 62
     7
100
AcDbPolyline
 90
        3
 70
   128
 43
0.0
 10
6560.9512329102
 20
5305.9440676202
 10
6560.4701714009
 20
5305.665911067
 10
6560.0918534698
 20
5305.4473821153
  0
LWPOLYLINE
  5
23E
330
1F
100
AcDbEntity
  8
0
  6
Continuous
 62
     7
100
AcDbPolyline
 90
        3
 70
   128
 43
0.0
 10
6560.9512329102
 20
5304.3565724125
 10
6560.4701714009
 20
5304.0784158592
 10
6560.0918534698
 20
5303.8598869075
  0
LWPOLYLINE
  5
23F
330
1F
100
AcDbEntity
  8
0
  6
Continuous
 62
     7
100
AcDbPolyline
 90
        3
 70
   128
 43
0.0
 10
6586.5173339844
 20
5307.8286323776
 10
6586.0411083421
 20
5308.1042367927
 10
6585.6662395896
 20
5308.3208028307
  0
LWPOLYLINE
  5
240
330
1F
100
AcDbEntity
  8
0
  6
Continuous
 62
     7
100
AcDbPolyline
 90
        3
 70
   128
 43
0.0
 10
6586.5173339844
 20
5306.2411371698
 10
6586.0411083421
 20
5306.5167415849
 10
6585.6662395896
 20
5306.7333076229
  0
LWPOLYLINE
  5
241
330
1F
100
AcDbEntity
  8
0
  6
Continuous
 62
     7
100
AcDbPolyline
 90
        3
 70
   128
 43
0.0
 10
6586.5173339844
 20
5304.6536345114
 10
6586.0411083421
 20
5304.9292389265
 10
6585.6662395896
 20
5305.1458049645
  0
LWPOLYLINE
  5
242
330
1F
100
AcDbEntity
  8
0
  6
Continuous
 62
     7
100
AcDbPolyline
 90
        3
 70
   128
 43
0.0
 10
6586.5173339844
 20
5303.0661318531
 10
6586.0411083421
 20
5303.3417362682
 10
6585.6662395896
 20
5303.5583023061
  0
LWPOLYLINE
  5
243
330
1F
100
AcDbEntity
  8
0
  6
Continuous
 62
     7
100
AcDbPolyline
 90
        3
 70
   128
 43
0.0
 10
6586.5173339844
 20
5309.416135036
 10
6586.0411083421
 20
5309.691739451
 10
6585.6662395896
 20
5309.908305489
  0
LWPOLYLINE
  5
244
330
1F
100
AcDbEntity
  8
0
  6
Continuous
 62
     7
100
AcDbPolyline
 90
        3
 70
   128
 43
0.0
 10
6560.9512329102
 20
5310.7065681448
 10
6560.560191912
 20
5310.4804140255
 10
6560.2526071967
 20
5310.3027392258
  0
LWPOLYLINE
  5
245
330
1F
100
AcDbEntity
  8
0
  6
Continuous
 62
     7
100
AcDbPolyline
 90
        3
 70
   128
 43
0.0
 10
6586.5173339844
 20
5144.6232471695
 10
6586.0415414601
 20
5144.8991211283
 10
6585.6662991943
 20
5145.1158795585
  0
LWPOLYLINE
  5
246
330
1F
100
AcDbEntity
  8
0
  6
Continuous
 62
     7
100
AcDbPolyline
 90
        3
 70
   128
 43
0.0
 10
6586.5173339844
 20
5146.2107498278
 10
6586.0415414601
 20
5146.4866237867
 10
6585.6662991943
 20
5146.7033822169
  0
LWPOLYLINE
  5
247
330
1F
100
AcDbEntity
  8
0
  6
Continuous
 62
     7
100
AcDbPolyline
 90
        3
 70
   128
 43
0.0
 10
6586.5173339844
 20
5147.7982450356
 10
6586.0415426436
 20
5148.0741252156
 10
6585.6662991943
 20
5148.2908848753
  0
LWPOLYLINE
  5
248
330
1F
100
AcDbEntity
  8
0
  6
Continuous
 62
     7
100
AcDbPolyline
 90
        3
 70
   128
 43
0.0
 10
6586.5173339844
 20
5149.385747694
 10
6586.0415414601
 20
5149.6616216528
 10
6585.6662991943
 20
5149.8783800831
  0
LWPOLYLINE
  5
249
330
1F
100
AcDbEntity
  8
0
  6
Continuous
 62
     7
100
AcDbPolyline
 90
        3
 70
   128
 43
0.0
 10
6560.9474182129
 20
5144.3261254658
 10
6560.4692844062
 20
5144.0480022462
 10
6560.0910190047
 20
5143.8294995656
  0
LWPOLYLINE
  5
24A
330
1F
100
AcDbEntity
  8
0
  6
Continuous
 62
     7
100
AcDbPolyline
 90
        3
 70
   128
 43
0.0
 10
6560.9474182129
 20
5145.9136281242
 10
6560.4692828262
 20
5145.6355034673
 10
6560.0910190047
 20
5145.4169947734
  0
LWPOLYLINE
  5
24B
330
1F
100
AcDbEntity
  8
0
  6
Continuous
 62
     7
100
AcDbPolyline
 90
        3
 70
   128
 43
0.0
 10
6560.9474182129
 20
5147.501123332
 10
6560.4692844062
 20
5147.2230001123
 10
6560.0910190047
 20
5147.0044974317
  0
LWPOLYLINE
  5
24C
330
1F
100
AcDbEntity
  8
0
  6
Continuous
 62
     7
100
AcDbPolyline
 90
        3
 70
   128
 43
0.0
 10
6560.9474182129
 20
5149.0886259904
 10
6560.4692844062
 20
5148.8105027707
 10
6560.0910190047
 20
5148.5920000901
  0
LWPOLYLINE
  5
24D
330
1F
100
AcDbEntity
  8
0
  6
Continuous
 62
     7
100
AcDbPolyline
 90
        3
 70
   128
 43
0.0
 10
6560.8978271484
 20
5150.6461996665
 10
6560.4464941078
 20
5150.3848322973
 10
6560.0910190047
 20
5150.1794952979
  0
LWPOLYLINE
  5
24E
330
1F
100
AcDbEntity
  8
0
  6
Continuous
 62
     7
100
AcDbPolyline
 90
        3
 70
   128
 43
0.0
 10
6586.4181518555
 20
5143.0930692782
 10
6585.9978768207
 20
5143.336848549
 10
6585.6662991943
 20
5143.5283843507
  0
LWPOLYLINE
  5
24F
330
1F
100
AcDbEntity
  8
0
  6
Continuous
 62
     7
100
AcDbPolyline
 90
        3
 70
   128
 43
0.0
 10
6585.6590270996
 20
5145.3021813264
 10
6586.1408380661
 20
5145.5802918702
 10
6586.5191224517
 20
5145.7988072266
  0
LWPOLYLINE
  5
250
330
1F
100
AcDbEntity
  8
0
  6
Continuous
 62
     7
100
AcDbPolyline
 90
        3
 70
   128
 43
0.0
 10
6585.6590270996
 20
5146.8896839847
 10
6586.1408368734
 20
5147.167792421
 10
6586.5191224517
 20
5147.3863024344
  0
LWPOLYLINE
  5
251
330
1F
100
AcDbEntity
  8
0
  6
Continuous
 62
     7
100
AcDbPolyline
 90
        3
 70
   128
 43
0.0
 10
6585.6590270996
 20
5148.4771791925
 10
6586.1408380661
 20
5148.7552897364
 10
6586.5191224517
 20
5148.9738050928
  0
LWPOLYLINE
  5
252
330
1F
100
AcDbEntity
  8
0
  6
Continuous
 62
     7
100
AcDbPolyline
 90
        3
 70
   128
 43
0.0
 10
6585.6590270996
 20
5150.0646818509
 10
6586.1408380661
 20
5150.3427923947
 10
6586.5191224517
 20
5150.5613077511
  0
LWPOLYLINE
  5
253
330
1F
100
AcDbEntity
  8
0
  6
Continuous
 62
     7
100
AcDbPolyline
 90
        3
 70
   128
 43
0.0
 10
6560.0891113281
 20
5145.0050596227
 10
6560.5685740069
 20
5144.7291984583
 10
6560.9437826575
 20
5144.5124272337
  0
LWPOLYLINE
  5
254
330
1F
100
AcDbEntity
  8
0
  6
Continuous
 62
     7
100
AcDbPolyline
 90
        3
 70
   128
 43
0.0
 10
6560.0891113281
 20
5146.5925548305
 10
6560.5685740069
 20
5146.3166936661
 10
6560.9437826575
 20
5146.0999224415
  0
LWPOLYLINE
  5
255
330
1F
100
AcDbEntity
  8
0
  6
Continuous
 62
     7
100
AcDbPolyline
 90
        3
 70
   128
 43
0.0
 10
6560.0891113281
 20
5148.1800574889
 10
6560.5685740069
 20
5147.9041963245
 10
6560.9437826575
 20
5147.6874250998
  0
LWPOLYLINE
  5
256
330
1F
100
AcDbEntity
  8
0
  6
Continuous
 62
     7
100
AcDbPolyline
 90
        3
 70
   128
 43
0.0
 10
6560.0891113281
 20
5149.7675526967
 10
6560.5685724124
 20
5149.4916929447
 10
6560.9437826575
 20
5149.2749277582
  0
LWPOLYLINE
  5
257
330
1F
100
AcDbEntity
  8
0
  6
Continuous
 62
     7
100
AcDbPolyline
 90
        3
 70
   128
 43
0.0
 10
6560.0891113281
 20
5143.4175569644
 10
6560.5685740069
 20
5143.1416958
 10
6560.9437826575
 20
5142.9249245753
  0
LWPOLYLINE
  5
258
330
1F
100
AcDbEntity
  8
0
  6
Continuous
 62
     7
100
AcDbPolyline
 90
        3
 70
   128
 43
0.0
 10
6585.6590270996
 20
5143.714678668
 10
6586.1408380661
 20
5143.9927892118
 10
6586.5191224517
 20
5144.2113045683
  0
LWPOLYLINE
  5
259
330
1F
100
AcDbEntity
  8
0
  6
Continuous
 62
     7
100
AcDbPolyline
 90
        7
 70
   128
 43
0.0
 10
6570.5070495605
 20
5310.1462025275
 10
6585.0188712159
 20
5310.3597581872
 10
6586.1747502412
 20
5310.4143316501
 10
6586.201325948
 20
5310.4235357179
 10
6586.201856606
 20
5310.4258332718
 10
6586.2009200794
 20
5310.4281299946
 10
6586.1966017188
 20
5310.4327220549
  0
LWPOLYLINE
  5
25A
330
1F
100
AcDbEntity
  8
0
  6
Continuous
 62
     7
100
AcDbPolyline
 90
        3
 70
   128
 43
0.0
 10
6560.9016418457
 20
5310.935941719
 10
6561.2794193903
 20
5310.9749717641
 10
6562.1252063216
 20
5311.0054630866
  0
LWPOLYLINE
  5
25B
330
1F
100
AcDbEntity
  8
0
  6
Continuous
 62
     7
100
AcDbPolyline
 90
        5
 70
   128
 43
0.0
 10
6569.1261291504
 20
5311.0054630866
 10
6562.8286774717
 20
5310.6353882184
 10
6560.9721332282
 20
5310.4533726236
 10
6560.4391270805
 20
5310.366240611
 10
6560.2418783607
 20
5310.2766472926
  0
LINE
  5
25C
330
1F
100
AcDbEntity
  8
0
  6
Continuous
 62
     7
100
AcDbLine
 10
6562.1223449707
 20
5311.0054630866
 30
0.0
 11
6569.1286924781
 21
5311.0054630866
 31
0.0
  0
LWPOLYLINE
  5
25D
330
1F
100
AcDbEntity
  8
0
  6
Continuous
 62
     7
100
AcDbPolyline
 90
        8
 70
   128
 43
0.0
 10
6586.4562988281
 20
5309.4073657026
 10
6586.4978224385
 20
5309.3933299207
 10
6586.499144508
 20
5309.3909773448
 10
6586.4982221136
 20
5309.3886189708
 10
6586.485060241
 20
5309.38230461
 10
6585.5102764314
 20
5309.3067022894
 10
6573.3042229439
 20
5309.0107099544
 10
6560.1031187476
 20
5308.6137671103
  0
LWPOLYLINE
  5
25E
330
1F
100
AcDbEntity
  8
0
  6
Continuous
 62
     7
100
AcDbPolyline
 90
        8
 70
   128
 43
0.0
 10
6586.4562988281
 20
5307.8198630442
 10
6586.4978224389
 20
5307.8058271925
 10
6586.4991445079
 20
5307.8034747001
 10
6586.4982221127
 20
5307.8011164511
 10
6586.4850602371
 20
5307.7948026075
 10
6585.5102763778
 20
5307.7192076679
 10
6573.304222944
 20
5307.4232068909
 10
6560.1031187476
 20
5307.0262644519
  0
LWPOLYLINE
  5
25F
330
1F
100
AcDbEntity
  8
0
  6
Continuous
 62
     7
100
AcDbPolyline
 90
        8
 70
   128
 43
0.0
 10
6586.4562988281
 20
5306.2323603859
 10
6586.4978224399
 20
5306.2183313025
 10
6586.4991445085
 20
5306.2159795851
 10
6586.4982221127
 20
5306.213621956
 10
6586.4850602362
 20
5306.207309061
 10
6585.5102763819
 20
5306.1317035862
 10
6573.3042229905
 20
5305.835705844
 10
6560.1031187476
 20
5305.4387692442
  0
LWPOLYLINE
  5
260
330
1F
100
AcDbEntity
  8
0
  6
Continuous
 62
     7
100
AcDbPolyline
 90
        8
 70
   128
 43
0.0
 10
6586.4562988281
 20
5304.6448651781
 10
6586.4978224383
 20
5304.6308294198
 10
6586.4991445081
 20
5304.6284768157
 10
6586.498222114
 20
5304.6261183995
 10
6586.4850602429
 20
5304.6198038726
 10
6585.5102763929
 20
5304.5442060459
 10
6573.3042229429
 20
5304.2482094365
 10
6560.1031187476
 20
5303.8512665858
  0
LWPOLYLINE
  5
261
330
1F
100
AcDbEntity
  8
0
  6
Continuous
 62
     7
100
AcDbPolyline
 90
        7
 70
   128
 43
0.0
 10
6586.4562988281
 20
5303.0573625197
 10
6586.4982878757
 20
5303.0428207927
 10
6586.4991254775
 20
5303.0403825295
 10
6586.4975438593
 20
5303.0379381246
 10
6586.4819441802
 20
5303.0313934716
 10
6585.4384571408
 20
5302.9531909726
 10
6572.5601318778
 20
5302.6462022295
  0
LWPOLYLINE
  5
262
330
1F
100
AcDbEntity
  8
0
  6
Continuous
 62
     7
100
AcDbPolyline
 90
        3
 70
   128
 43
0.0
 10
6570.5070495605
 20
5310.1462025275
 10
6562.3751440913
 20
5309.9542119024
 10
6560.1031187476
 20
5309.8043922414
  0
LWPOLYLINE
  5
263
330
1F
100
AcDbEntity
  8
0
  6
Continuous
 62
     7
100
AcDbPolyline
 90
        3
 70
   128
 43
0.0
 10
6586.4448547363
 20
5309.0019721617
 10
6570.6365917296
 20
5308.5612826338
 10
6560.1031187476
 20
5308.2168895831
  0
LWPOLYLINE
  5
264
330
1F
100
AcDbEntity
  8
0
  6
Continuous
 62
     7
100
AcDbPolyline
 90
        3
 70
   128
 43
0.0
 10
6586.4448547363
 20
5307.4144695034
 10
6570.6365918085
 20
5306.973780012
 10
6560.1031187476
 20
5306.6293943753
  0
LWPOLYLINE
  5
265
330
1F
100
AcDbEntity
  8
0
  6
Continuous
 62
     7
100
AcDbPolyline
 90
        3
 70
   128
 43
0.0
 10
6586.4448547363
 20
5305.826966845
 10
6570.6365916674
 20
5305.3862848475
 10
6560.1031187476
 20
5305.0418917169
  0
LWPOLYLINE
  5
266
330
1F
100
AcDbEntity
  8
0
  6
Continuous
 62
     7
100
AcDbPolyline
 90
        3
 70
   128
 43
0.0
 10
6586.4448547363
 20
5304.2394716372
 10
6570.6365918075
 20
5303.7987821108
 10
6560.1031187476
 20
5303.4543965091
  0
LWPOLYLINE
  5
267
330
1F
100
AcDbEntity
  8
0
  6
Continuous
 62
     7
100
AcDbPolyline
 90
       13
 70
   128
 43
0.0
 10
6585.6246948242
 20
5310.0928042164
 10
6585.6404106708
 20
5310.086634234
 10
6585.6429292573
 20
5310.0843121765
 10
6585.6430674881
 20
5310.0819838912
 10
6585.5979514154
 20
5310.0679112911
 10
6584.5642932271
 20
5309.9934948029
 10
6573.0947153341
 20
5309.7008814592
 10
6561.8736222744
 20
5309.4051370275
 10
6561.0110206225
 20
5309.33359616
 10
6561.0030784532
 20
5309.3274294554
 10
6561.0030394944
 20
5309.3227687886
 10
6561.0067019344
 20
5309.3180858306
 10
6561.0201958121
 20
5309.3086827626
  0
LWPOLYLINE
  5
268
330
1F
100
AcDbEntity
  8
0
  6
Continuous
 62
     7
100
AcDbPolyline
 90
       13
 70
   128
 43
0.0
 10
6585.6246948242
 20
5308.505301558
 10
6585.6404106746
 20
5308.4991382634
 10
6585.6429292613
 20
5308.4968182658
 10
6585.6430674922
 20
5308.4944917
 10
6585.5979514202
 20
5308.4804233204
 10
6584.5642932305
 20
5308.4059899524
 10
6573.0947154
 20
5308.1133796582
 10
6561.8736223265
 20
5307.8176344947
 10
6561.0110206299
 20
5307.7460939991
 10
6561.0030784572
 20
5307.7399286969
 10
6561.0030394968
 20
5307.735269276
 10
6561.0067019357
 20
5307.7305876855
 10
6561.0201958121
 20
5307.7211875548
  0
LWPOLYLINE
  5
269
330
1F
100
AcDbEntity
  8
0
  6
Continuous
 62
     7
100
AcDbPolyline
 90
       13
 70
   128
 43
0.0
 10
6585.6246948242
 20
5306.9177988996
 10
6585.6404106745
 20
5306.9116356097
 10
6585.6429292614
 20
5306.9093155935
 10
6585.6430674927
 20
5306.9069889942
 10
6585.5979514244
 20
5306.8929202223
 10
6584.5642931792
 20
5306.8184927974
 10
6573.0947152627
 20
5306.5258836415
 10
6561.8736222699
 20
5306.2301395053
 10
6561.0110206308
 20
5306.1585911841
 10
6561.0030784593
 20
5306.1524256961
 10
6561.003039499
 20
5306.147766266
 10
6561.0067019374
 20
5306.1430847475
 10
6561.0201958121
 20
5306.1336848964
  0
LWPOLYLINE
  5
26A
330
1F
100
AcDbEntity
  8
0
  6
Continuous
 62
     7
100
AcDbPolyline
 90
       13
 70
   128
 43
0.0
 10
6585.6246948242
 20
5305.3303036918
 10
6585.6404106708
 20
5305.3241337095
 10
6585.6429292573
 20
5305.3218116519
 10
6585.6430674881
 20
5305.3194833667
 10
6585.5979514155
 20
5305.3054107666
 10
6584.5642932273
 20
5305.230994278
 10
6573.0947153336
 20
5304.9383810662
 10
6561.8736222748
 20
5304.6426364754
 10
6561.0110206225
 20
5304.5710956346
 10
6561.0030784532
 20
5304.564928929
 10
6561.0030394945
 20
5304.5602682622
 10
6561.0067019344
 20
5304.5555853046
 10
6561.0201958121
 20
5304.5461822381
  0
LWPOLYLINE
  5
26B
330
1F
100
AcDbEntity
  8
0
  6
Continuous
 62
     7
100
AcDbPolyline
 90
       13
 70
   128
 43
0.0
 10
6585.6246948242
 20
5303.7428010335
 10
6585.6404106746
 20
5303.7366377388
 10
6585.6429292613
 20
5303.7343177413
 10
6585.6430674922
 20
5303.7319911754
 10
6585.5979514203
 20
5303.7179227957
 10
6584.5642932307
 20
5303.6434894293
 10
6573.0947154119
 20
5303.3508786522
 10
6561.8736223261
 20
5303.0551339775
 10
6561.0110206298
 20
5302.9835934748
 10
6561.0030784572
 20
5302.9774281728
 10
6561.0030394968
 20
5302.972768752
 10
6561.0067019357
 20
5302.9680871613
 10
6561.0201958121
 20
5302.9586870303
  0
LINE
  5
26C
330
1F
100
AcDbEntity
  8
0
  6
Continuous
 62
     7
100
AcDbLine
 10
6563.2286071777
 20
5302.6462022295
 30
0.0
 11
6565.8133629264
 21
5302.6462022295
 31
0.0
  0
LWPOLYLINE
  5
26D
330
1F
100
AcDbEntity
  8
0
  6
Continuous
 62
     7
100
AcDbPolyline
 90
        7
 70
   128
 43
0.0
 10
6569.1261291504
 20
5311.0054630866
 10
6561.6251692624
 20
5310.780109048
 10
6561.0182482317
 20
5310.7254422187
 10
6561.0110698886
 20
5310.7207207643
 10
6561.0100142169
 20
5310.7171533729
 10
6561.0116656927
 20
5310.713569531
 10
6561.0194805564
 20
5310.7063744297
  0
LWPOLYLINE
  5
26E
330
1F
100
AcDbEntity
  8
0
  6
Continuous
 62
     7
100
AcDbPolyline
 90
       13
 70
   128
 43
0.0
 10
6585.6018066406
 20
5309.9039916029
 10
6585.6397985973
 20
5309.8901097671
 10
6585.6414734984
 20
5309.8877837426
 10
6585.6411468924
 20
5309.8854521252
 10
6585.6304716051
 20
5309.8792090506
 10
6584.7464433528
 20
5309.804370487
 10
6573.5376662834
 20
5309.5116305985
 10
6562.0469616793
 20
5309.2153049243
 10
6561.0379854316
 20
5309.1436505744
 10
6561.0173488993
 20
5309.137553474
 10
6561.0101313069
 20
5309.131375069
 10
6561.0124274882
 20
5309.1251380689
 10
6561.0194805564
 20
5309.1188717713
  0
LWPOLYLINE
  5
26F
330
1F
100
AcDbEntity
  8
0
  6
Continuous
 62
     7
100
AcDbPolyline
 90
       13
 70
   128
 43
0.0
 10
6585.6018066406
 20
5308.3164889445
 10
6585.6397985972
 20
5308.3026071087
 10
6585.6414734984
 20
5308.3002810843
 10
6585.6411468925
 20
5308.2979494669
 10
6585.6304716054
 20
5308.2917063925
 10
6584.7464433601
 20
5308.2168678264
 10
6573.5376662561
 20
5307.9241330045
 10
6562.0469616981
 20
5307.6278084664
 10
6561.0379854405
 20
5307.5561470337
 10
6561.0173489064
 20
5307.5500508781
 10
6561.0101313113
 20
5307.5438743664
 10
6561.0124274903
 20
5307.5376399429
 10
6561.0194805564
 20
5307.5313765635
  0
LWPOLYLINE
  5
270
330
1F
100
AcDbEntity
  8
0
  6
Continuous
 62
     7
100
AcDbPolyline
 90
       13
 70
   128
 43
0.0
 10
6585.6018066406
 20
5306.7289862861
 10
6585.6397985969
 20
5306.7151044802
 10
6585.6414734983
 20
5306.7127784313
 10
6585.6411468928
 20
5306.7104467763
 10
6585.6304716072
 20
5306.7042035474
 10
6584.7464433231
 20
5306.6293691039
 10
6573.5376662466
 20
5306.3366305429
 10
6562.0469616991
 20
5306.0403040858
 10
6561.0379854302
 20
5305.9686528054
 10
6561.0173488992
 20
5305.9625556048
 10
6561.0101313072
 20
5305.9563771619
 10
6561.0124274885
 20
5305.9501401707
 10
6561.0194805564
 20
5305.9438739052
  0
LWPOLYLINE
  5
271
330
1F
100
AcDbEntity
  8
0
  6
Continuous
 62
     7
100
AcDbPolyline
 90
       13
 70
   128
 43
0.0
 10
6585.6018066406
 20
5305.1414910783
 10
6585.6397985972
 20
5305.1276092426
 10
6585.6414734984
 20
5305.1252832181
 10
6585.6411468925
 20
5305.1229516007
 10
6585.6304716054
 20
5305.1167085262
 10
6584.74644336
 20
5305.0418699629
 10
6573.537666361
 20
5304.7491300758
 10
6562.0469617357
 20
5304.4528051261
 10
6561.0379854439
 20
5304.3811486651
 10
6561.0173489063
 20
5304.375053027
 10
6561.0101313098
 20
5304.3688767075
 10
6561.0124274892
 20
5304.3626422395
 10
6561.0194805564
 20
5304.3563786974
  0
LWPOLYLINE
  5
272
330
1F
100
AcDbEntity
  8
0
  6
Continuous
 62
     7
100
AcDbPolyline
 90
       13
 70
   128
 43
0.0
 10
6585.6018066406
 20
5303.55398842
 10
6585.6397985972
 20
5303.5401065842
 10
6585.6414734984
 20
5303.5377805597
 10
6585.6411468925
 20
5303.5354489424
 10
6585.6304716054
 20
5303.529205868
 10
6584.7464433601
 20
5303.4543673019
 10
6573.5376662561
 20
5303.16163248
 10
6562.0469616981
 20
5302.8653079419
 10
6561.0379854405
 20
5302.7936465092
 10
6561.0173489064
 20
5302.7875503536
 10
6561.0101313113
 20
5302.7813738419
 10
6561.0124274903
 20
5302.7751394184
 10
6561.0194805564
 20
5302.768876039
  0
LWPOLYLINE
  5
273
330
1F
100
AcDbEntity
  8
0
  6
Continuous
 62
     7
100
AcDbPolyline
 90
       15
 70
   128
 43
0.0
 10
6586.4067077637
 20
5143.0763576259
 10
6586.4448897427
 20
5143.0678574035
 10
6586.4452587756
 20
5143.0671480683
 10
6586.4450978035
 20
5143.0664384908
 10
6586.4432234815
 20
5143.0650185177
 10
6586.4286172045
 20
5143.0612253487
 10
6585.5618460656
 20
5143.0141739481
 10
6573.7096266671
 20
5142.8245944694
 10
6561.61875205
 20
5142.6329039695
 10
6560.700461973
 20
5142.5838256428
 10
6560.6848985315
 20
5142.579865393
 10
6560.6827024074
 20
5142.5783893776
 10
6560.6823387547
 20
5142.577653211
 10
6560.6824212995
 20
5142.576918163
 10
6560.7057217063
 20
5142.5681535234
  0
LWPOLYLINE
  5
274
330
1F
100
AcDbEntity
  8
0
  6
Continuous
 62
     7
100
AcDbPolyline
 90
       10
 70
   128
 43
0.0
 10
6560.1043701172
 20
5143.8295964231
 10
6573.5116721185
 20
5144.2226956905
 10
6585.529868919
 20
5144.517588321
 10
6586.5053577127
 20
5144.5918162227
 10
6586.525894512
 20
5144.5978443844
 10
6586.529631574
 20
5144.6001011218
 10
6586.5310808365
 20
5144.6023560106
 10
6586.5306178864
 20
5144.6040460555
 10
6586.5287886387
 20
5144.6057352103
 10
6586.4914062919
 20
5144.6158561935
  0
LWPOLYLINE
  5
275
330
1F
100
AcDbEntity
  8
0
  6
Continuous
 62
     7
100
AcDbPolyline
 90
       10
 70
   128
 43
0.0
 10
6560.1043701172
 20
5145.4170990815
 10
6573.5116722718
 20
5145.8101902907
 10
6585.5298689105
 20
5146.1050917121
 10
6586.5053577137
 20
5146.179318795
 10
6586.5258945126
 20
5146.1853469957
 10
6586.5296315744
 20
5146.1876037463
 10
6586.5310808368
 20
5146.1898586467
 10
6586.5306178866
 20
5146.1915486992
 10
6586.5287886388
 20
5146.1932378604
 10
6586.4914062919
 20
5146.2033588519
  0
LWPOLYLINE
  5
276
330
1F
100
AcDbEntity
  8
0
  6
Continuous
 62
     7
100
AcDbPolyline
 90
       10
 70
   128
 43
0.0
 10
6560.1043701172
 20
5147.0046017399
 10
6573.5116722626
 20
5147.3976935614
 10
6585.5298689112
 20
5147.6925969619
 10
6586.505357701
 20
5147.7668067339
 10
6586.5258944999
 20
5147.7728355799
 10
6586.5296315622
 20
5147.7750930355
 10
6586.5310808251
 20
5147.7773489246
 10
6586.5306178755
 20
5147.7790399166
 10
6586.5287886285
 20
5147.7807301964
 10
6586.4914062919
 20
5147.7908615102
  0
LWPOLYLINE
  5
277
330
1F
100
AcDbEntity
  8
0
  6
Continuous
 62
     7
100
AcDbPolyline
 90
       10
 70
   128
 43
0.0
 10
6560.1043701172
 20
5148.5920969476
 10
6573.5116721197
 20
5148.9851961
 10
6585.529868919
 20
5149.2800888458
 10
6586.5053577127
 20
5149.3543167472
 10
6586.525894512
 20
5149.3603449089
 10
6586.529631574
 20
5149.3626016463
 10
6586.5310808365
 20
5149.3648565351
 10
6586.5306178864
 20
5149.36654658
 10
6586.5287886387
 20
5149.3682357348
 10
6586.4914062919
 20
5149.378356718
  0
LWPOLYLINE
  5
278
330
1F
100
AcDbEntity
  8
0
  6
Continuous
 62
     7
100
AcDbPolyline
 90
        3
 70
   128
 43
0.0
 10
6560.1043701172
 20
5150.179599606
 10
6566.9119527497
 20
5150.4406347101
 10
6577.3141387405
 20
5150.6461996665
  0
LWPOLYLINE
  5
279
330
1F
100
AcDbEntity
  8
0
  6
Continuous
 62
     7
100
AcDbPolyline
 90
       10
 70
   128
 43
0.0
 10
6561.0198974609
 20
5142.7388016214
 10
6561.0154867112
 20
5142.7447049686
 10
6561.0148819112
 20
5142.7506258814
 10
6561.0410309275
 20
5142.7625900832
 10
6562.0350555338
 20
5142.8374821268
 10
6573.5094831587
 20
5143.1314054659
 10
6584.7416887022
 20
5143.426122076
 10
6585.5808203137
 20
5143.5004160687
 10
6585.5990311214
 20
5143.51228176
 10
6585.6027606429
 20
5143.5240779152
  0
LWPOLYLINE
  5
27A
330
1F
100
AcDbEntity
  8
0
  6
Continuous
 62
     7
100
AcDbPolyline
 90
       10
 70
   128
 43
0.0
 10
6561.0198974609
 20
5144.3263042798
 10
6561.0154867099
 20
5144.3322078056
 10
6561.0148819093
 20
5144.3381288
 10
6561.041030929
 20
5144.35009249
 10
6562.0350555706
 20
5144.4249787791
 10
6573.5094831285
 20
5144.7189059258
 10
6584.7416887084
 20
5145.0136172629
 10
6585.5808203001
 20
5145.0879174159
 10
6585.5990311138
 20
5145.0997803926
 10
6585.6027606429
 20
5145.1115731229
  0
LWPOLYLINE
  5
27B
330
1F
100
AcDbEntity
  8
0
  6
Continuous
 62
     7
100
AcDbPolyline
 90
       10
 70
   128
 43
0.0
 10
6561.0198974609
 20
5145.9137994876
 10
6561.0154867112
 20
5145.9197028338
 10
6561.0148819112
 20
5145.9256237461
 10
6561.0410309275
 20
5145.9375879506
 10
6562.0350555349
 20
5146.0124799394
 10
6573.5094831659
 20
5146.3064029153
 10
6584.7416886953
 20
5146.6011205229
 10
6585.5808203115
 20
5146.6754141217
 10
6585.5990311197
 20
5146.6872797724
 10
6585.6027606429
 20
5146.6990757813
  0
LWPOLYLINE
  5
27C
330
1F
100
AcDbEntity
  8
0
  6
Continuous
 62
     7
100
AcDbPolyline
 90
       10
 70
   128
 43
0.0
 10
6561.0198974609
 20
5147.5013021459
 10
6561.0154867112
 20
5147.5072054931
 10
6561.0148819112
 20
5147.5131264059
 10
6561.0410309275
 20
5147.5250906077
 10
6562.0350555338
 20
5147.5999826513
 10
6573.5094831587
 20
5147.8939059904
 10
6584.7416887022
 20
5148.1886226005
 10
6585.5808203137
 20
5148.2629165932
 10
6585.5990311214
 20
5148.2747822845
 10
6585.6027606429
 20
5148.2865784397
  0
LWPOLYLINE
  5
27D
330
1F
100
AcDbEntity
  8
0
  6
Continuous
 62
     7
100
AcDbPolyline
 90
       10
 70
   128
 43
0.0
 10
6561.0198974609
 20
5149.0888048043
 10
6561.0154867099
 20
5149.0947083302
 10
6561.0148819093
 20
5149.1006293246
 10
6561.041030929
 20
5149.1125930144
 10
6562.0350555708
 20
5149.1874793075
 10
6573.5094832462
 20
5149.4814006758
 10
6584.7416887082
 20
5149.7761177846
 10
6585.5808203002
 20
5149.8504179395
 10
6585.5990311138
 20
5149.8622809164
 10
6585.6027606429
 20
5149.8740736475
  0
LWPOLYLINE
  5
27E
330
1F
100
AcDbEntity
  8
0
  6
Continuous
 62
     7
100
AcDbPolyline
 90
       11
 70
   128
 43
0.0
 10
6560.1615905762
 20
5143.4251416554
 10
6560.1520370267
 20
5143.4340856577
 10
6560.1499704878
 20
5143.4385697175
 10
6560.1514067681
 20
5143.4430682475
 10
6560.1607887236
 20
5143.4490971337
 10
6561.0959802757
 20
5143.5244036914
 10
6573.3053697691
 20
5143.821918944
 10
6585.5173543723
 20
5144.1196649942
 10
6586.4338241616
 20
5144.194803071
 10
6586.4537996012
 20
5144.2067966296
 10
6586.4578488769
 20
5144.218717896
  0
LWPOLYLINE
  5
27F
330
1F
100
AcDbEntity
  8
0
  6
Continuous
 62
     7
100
AcDbPolyline
 90
       11
 70
   128
 43
0.0
 10
6560.1615905762
 20
5145.0126443138
 10
6560.1520370308
 20
5145.0215852313
 10
6560.1499704937
 20
5145.0260679022
 10
6560.1514067757
 20
5145.0305652278
 10
6560.1607887329
 20
5145.036592901
 10
6561.0959802893
 20
5145.1119056145
 10
6573.3053697547
 20
5145.4094222027
 10
6585.5173543742
 20
5145.7071676514
 10
6586.4338241746
 20
5145.7822995535
 10
6586.4537996084
 20
5145.7942958356
 10
6586.4578488769
 20
5145.8062205543
  0
LWPOLYLINE
  5
280
330
1F
100
AcDbEntity
  8
0
  6
Continuous
 62
     7
100
AcDbPolyline
 90
       11
 70
   128
 43
0.0
 10
6560.1615905762
 20
5146.6001469721
 10
6560.1520370286
 20
5146.6090882219
 10
6560.1499704908
 20
5146.6135709915
 10
6560.1514067727
 20
5146.6180683347
 10
6560.1607887309
 20
5146.6240958588
 10
6561.0959803357
 20
5146.699401423
 10
6573.3053698104
 20
5146.9969218669
 10
6585.5173544265
 20
5147.2946630044
 10
6586.4338241697
 20
5147.3698028629
 10
6586.4537996046
 20
5147.3817990087
 10
6586.4578488769
 20
5147.3937232127
  0
LWPOLYLINE
  5
281
330
1F
100
AcDbEntity
  8
0
  6
Continuous
 62
     7
100
AcDbPolyline
 90
       11
 70
   128
 43
0.0
 10
6560.1615905762
 20
5148.1876421799
 10
6560.1520370299
 20
5148.1965831867
 10
6560.1499704926
 20
5148.2010658842
 10
6560.1514067745
 20
5148.2055632145
 10
6560.1607887322
 20
5148.2115908476
 10
6561.0959802713
 20
5148.2869053227
 10
6573.3053697641
 20
5148.5844195384
 10
6585.5173543696
 20
5148.8821657003
 10
6586.4338241609
 20
5148.9573036432
 10
6586.4537996007
 20
5148.9692971918
 10
6586.4578488769
 20
5148.9812184205
  0
LWPOLYLINE
  5
282
330
1F
100
AcDbEntity
  8
0
  6
Continuous
 62
     7
100
AcDbPolyline
 90
       11
 70
   128
 43
0.0
 10
6560.1615905762
 20
5149.7751448383
 10
6560.1520370308
 20
5149.7840857558
 10
6560.1499704937
 20
5149.7885684267
 10
6560.1514067757
 20
5149.7930657523
 10
6560.1607887329
 20
5149.7990934255
 10
6561.0959802893
 20
5149.874406139
 10
6573.3053697547
 20
5150.1719227272
 10
6585.5173543742
 20
5150.4696681759
 10
6586.4338241746
 20
5150.5448000781
 10
6586.4537996084
 20
5150.5567963601
 10
6586.4578488769
 20
5150.5687210788
  0
LWPOLYLINE
  5
283
330
1F
100
AcDbEntity
  8
0
  6
Continuous
 62
     7
100
AcDbPolyline
 90
       11
 70
   128
 43
0.0
 10
6561.0160827637
 20
5142.9290298452
 10
6561.006980964
 20
5142.9378767916
 10
6561.0049819368
 20
5142.9423119872
 10
6561.006152642
 20
5142.9467612497
 10
6561.0144704604
 20
5142.9527235861
 10
6561.8693088763
 20
5143.027200477
 10
6573.0981189099
 20
5143.3217591037
 10
6584.5774149178
 20
5143.6159413513
 10
6585.5501960823
 20
5143.6907006541
 10
6585.5787225735
 20
5143.7026167026
 10
6585.5866077842
 20
5143.7144327988
  0
LWPOLYLINE
  5
284
330
1F
100
AcDbEntity
  8
0
  6
Continuous
 62
     7
100
AcDbPolyline
 90
       11
 70
   128
 43
0.0
 10
6561.0160827637
 20
5144.5165325036
 10
6561.0069809637
 20
5144.5253794677
 10
6561.0049819365
 20
5144.5298146687
 10
6561.0061526417
 20
5144.5342639324
 10
6561.0144704602
 20
5144.5402262613
 10
6561.8693088724
 20
5144.6147034545
 10
6573.0981190935
 20
5144.9092526794
 10
6584.5774149176
 20
5145.2034440033
 10
6585.5501960823
 20
5145.2782033122
 10
6585.5787225735
 20
5145.2901193605
 10
6585.5866077842
 20
5145.3019354572
  0
LWPOLYLINE
  5
285
330
1F
100
AcDbEntity
  8
0
  6
Continuous
 62
     7
100
AcDbPolyline
 90
       11
 70
   128
 43
0.0
 10
6561.0160827637
 20
5146.1040277114
 10
6561.0069809664
 20
5146.112874321
 10
6561.00498194
 20
5146.1173094149
 10
6561.0061526454
 20
5146.1217586558
 10
6561.0144704627
 20
5146.127721134
 10
6561.8693088281
 20
5146.2022051667
 10
6573.0981189227
 20
5146.4967563078
 10
6584.577414844
 20
5146.7909478668
 10
6585.5501960836
 20
5146.8656983188
 10
6585.5787225754
 20
5146.8776142811
 10
6585.5866077842
 20
5146.889430665
  0
LWPOLYLINE
  5
286
330
1F
100
AcDbEntity
  8
0
  6
Continuous
 62
     7
100
AcDbPolyline
 90
       11
 70
   128
 43
0.0
 10
6561.0160827637
 20
5147.6915303697
 10
6561.0069809641
 20
5147.7003773095
 10
6561.0049819369
 20
5147.7048125032
 10
6561.0061526422
 20
5147.7092617653
 10
6561.0144704605
 20
5147.7152241044
 10
6561.8693088786
 20
5147.7897008836
 10
6573.0981189113
 20
5148.0842593795
 10
6584.5774149175
 20
5148.378441876
 10
6585.5501960823
 20
5148.4532011786
 10
6585.5787225735
 20
5148.4651172271
 10
6585.5866077842
 20
5148.4769333234
  0
LWPOLYLINE
  5
287
330
1F
100
AcDbEntity
  8
0
  6
Continuous
 62
     7
100
AcDbPolyline
 90
       11
 70
   128
 43
0.0
 10
6561.0160827637
 20
5149.2790330281
 10
6561.0069809637
 20
5149.2878799923
 10
6561.0049819365
 20
5149.2923151932
 10
6561.0061526417
 20
5149.2967644569
 10
6561.0144704602
 20
5149.3027267858
 10
6561.8693088724
 20
5149.377203979
 10
6573.0981190935
 20
5149.6717532039
 10
6584.5774149176
 20
5149.9659445278
 10
6585.5501960823
 20
5150.0407038367
 10
6585.5787225735
 20
5150.0526198851
 10
6585.5866077842
 20
5150.0644359817
  0
LINE
  5
288
330
1F
100
AcDbEntity
  8
0
  6
Continuous
 62
     7
100
AcDbLine
 10
6318.4700012207
 20
4834.8321503594
 30
0.0
 11
6319.1781445854
 21
4834.8321503594
 31
0.0
  0
LINE
  5
289
330
1F
100
AcDbEntity
  8
0
  6
Continuous
 62
     7
100
AcDbLine
 10
6322.2236633301
 20
4834.8321503594
 30
0.0
 11
6322.0557376258
 21
4834.8321503594
 31
0.0
  0
LINE
  5
28A
330
1F
100
AcDbEntity
  8
0
  6
Continuous
 62
     7
100
AcDbLine
 10
6322.2846984863
 20
4834.8321503594
 30
0.0
 11
6322.2266539447
 21
4834.8321503594
 31
0.0
  0
LWPOLYLINE
  5
28B
330
1F
100
AcDbEntity
  8
0
  6
Continuous
 62
     7
100
AcDbPolyline
 90
        3
 70
   128
 43
0.0
 10
6266.8991088867
 20
4885.3033369973
 10
6269.0744763531
 20
4887.6851775438
 10
6269.93982042
 20
4890.0742715791
  0
LWPOLYLINE
  5
28C
330
1F
100
AcDbEntity
  8
0
  6
Continuous
 62
     7
100
AcDbPolyline
 90
        3
 70
   128
 43
0.0
 10
6259.4223022461
 20
4884.5408147767
 10
6263.7333047731
 20
4883.9692195061
 10
6266.9008478038
 20
4885.3033369973
  0
LWPOLYLINE
  5
28D
330
1F
100
AcDbEntity
  8
0
  6
Continuous
 62
     7
100
AcDbPolyline
 90
        9
 70
   128
 43
0.0
 10
6249.7367858887
 20
4894.1548129687
 10
6250.7858579016
 20
4885.7911425731
 10
6256.7035127142
 20
4879.7920431957
 10
6265.0533132937
 20
4878.6776777312
 10
6272.3092411179
 20
4882.951477932
 10
6275.3377375553
 20
4890.8062667591
 10
6272.7845969304
 20
4898.8255675909
 10
6265.7493256255
 20
4903.4394113364
 10
6257.3876782768
 20
4902.5370067552
  0
LWPOLYLINE
  5
28E
330
1F
100
AcDbEntity
  8
0
  6
Continuous
 62
     7
100
AcDbPolyline
 90
        3
 70
   128
 43
0.0
 10
6251.0261535645
 20
4895.5335205987
 10
6257.5602943273
 20
4903.1514212263
 10
6265.4589220397
 20
4904.278237243
  0
LWPOLYLINE
  5
28F
330
1F
100
AcDbEntity
  8
0
  6
Continuous
 62
     7
100
AcDbPolyline
 90
        3
 70
   128
 43
0.0
 10
6257.3852539062
 20
4902.5370067552
 10
6253.130596185
 20
4899.2268521709
 10
6251.0269090049
 20
4895.5335205987
  0
ARC
  5
290
330
1F
100
AcDbEntity
  8
0
  6
Continuous
 62
     7
100
AcDbCircle
 10
6262.709849148
 20
4891.363315302
 30
0.0
 40
13.20389673379206
100
AcDbArc
 50
186.8794958305
 51
77.9908626005
  0
LWPOLYLINE
  5
291
330
1F
100
AcDbEntity
  8
0
  6
Continuous
 62
     7
100
AcDbPolyline
 90
        3
 70
   128
 43
0.0
 10
6251.0261535645
 20
4895.5335205987
 10
6253.4976868394
 20
4899.6442110693
 10
6256.4457758777
 20
4902.0130819276
  0
ENDSEC
  0
SECTION
  2
OBJECTS
  0
DICTIONARY
  5
C
330
0
100
AcDbDictionary
281
     1
  3
ACAD_GROUP
350
D
  3
ACAD_LAYOUT
350
1A
  3
ACAD_MLINESTYLE
350
17
  3
ACAD_PLOTSETTINGS
350
19
  3
ACAD_PLOTSTYLENAME
350
E
  3
ACAD_SCALELIST
350
47
  3
DWGPROPS
350
292
  0
DICTIONARY
  5
D
102
{ACAD_REACTORS
330
C
102
}
330
C
100
AcDbDictionary
281
     1
  0
DICTIONARY
  5
1A
102
{ACAD_REACTORS
330
C
102
}
330
C
100
AcDbDictionary
281
     1
  3
Layout1
350
1E
  3
Layout2
350
26
  3
Model
350
22
  0
DICTIONARY
  5
17
102
{ACAD_REACTORS
330
C
102
}
330
C
100
AcDbDictionary
281
     1
  3
Standard
350
18
  0
DICTIONARY
  5
19
102
{ACAD_REACTORS
330
C
102
}
330
C
100
AcDbDictionary
281
     1
  0
ACDBDICTIONARYWDFLT
  5
E
102
{ACAD_REACTORS
330
C
102
}
330
C
100
AcDbDictionary
281
     1
  3
Normal
350
F
100
AcDbDictionaryWithDefault
340
F
  0
DICTIONARY
  5
47
102
{ACAD_REACTORS
330
C
102
}
330
C
100
AcDbDictionary
281
     1
  3
A0
350
48
  3
A1
350
49
  3
A2
350
4A
  3
A3
350
4B
  3
A4
350
4C
  3
A5
350
4D
  3
A6
350
4E
  3
A7
350
4F
  3
A8
350
50
  3
A9
350
51
  3
B0
350
52
  3
B1
350
53
  3
B2
350
54
  3
B3
350
55
  3
B4
350
56
  3
B5
350
57
  3
B6
350
58
  3
B7
350
59
  3
B8
350
5A
  3
B9
350
5B
  3
C0
350
5C
  3
C1
350
5D
  3
C2
350
5E
  3
C3
350
5F
  3
C4
350
60
  3
C5
350
61
  3
C6
350
62
  3
C7
350
63
  3
C8
350
64
  3
C9
350
65
  3
D0
350
66
  3
D1
350
67
  3
D2
350
68
  0
XRECORD
  5
292
102
{ACAD_REACTORS
330
C
102
}
330
C
100
AcDbXrecord
280
     1
  1
DWGPROPS COOKIE
  2

  3

  4

  6

  7

  8
radek.stransky
  9

300
=
301
=
302
=
303
=
304
=
305
=
306
=
307
=
308
=
309
=
 40
0.0
 41
2459103.371102801
 42
2459103.371135347
  1

 90
        0
  0
LAYOUT
  5
1E
102
{ACAD_REACTORS
330
1A
102
}
330
1A
100
AcDbPlotSettings
  1

  2
none_device
  4

  6

 40
0.0
 41
0.0
 42
0.0
 43
0.0
 44
0.0
 45
0.0
 46
0.0
 47
0.0
 48
0.0
 49
0.0
140
0.0
141
0.0
142
1.0
143
1.0
 70
   688
 72
     1
 73
     0
 74
     5
  7

 75
    16
147
1.0
148
0.0
149
0.0
100
AcDbLayout
  1
Layout1
 70
     1
 71
     1
 10
0.0
 20
0.0
 11
420.0
 21
297.0
 12
0.0
 22
0.0
 32
0.0
 14
1.0000000000E+20
 24
1.0000000000E+20
 34
1.0000000000E+20
 15
-1.0000000000E+20
 25
-1.0000000000E+20
 35
-1.0000000000E+20
146
0.0
 13
0.0
 23
0.0
 33
0.0
 16
1.0
 26
0.0
 36
0.0
 17
0.0
 27
1.0
 37
0.0
 76
     0
330
1B
  0
LAYOUT
  5
26
102
{ACAD_REACTORS
330
1A
102
}
330
1A
100
AcDbPlotSettings
  1

  2
none_device
  4

  6

 40
0.0
 41
0.0
 42
0.0
 43
0.0
 44
0.0
 45
0.0
 46
0.0
 47
0.0
 48
0.0
 49
0.0
140
0.0
141
0.0
142
1.0
143
1.0
 70
   688
 72
     1
 73
     0
 74
     5
  7

 75
    16
147
1.0
148
0.0
149
0.0
100
AcDbLayout
  1
Layout2
 70
     1
 71
     2
 10
0.0
 20
0.0
 11
0.0
 21
0.0
 12
0.0
 22
0.0
 32
0.0
 14
0.0
 24
0.0
 34
0.0
 15
0.0
 25
0.0
 35
0.0
146
0.0
 13
0.0
 23
0.0
 33
0.0
 16
1.0
 26
0.0
 36
0.0
 17
0.0
 27
1.0
 37
0.0
 76
     0
330
23
  0
LAYOUT
  5
22
102
{ACAD_REACTORS
330
1A
102
}
330
1A
100
AcDbPlotSettings
  1

  2
none_device
  4
ANSI_A_(11.00_x_8.50_Inches)
  6

 40
6.35
 41
19.05
 42
6.35000508
 43
19.05000254
 44
279.4
 45
215.9
 46
-2737.2512568661
 47
-2185.2763168402
 48
0.0
 49
0.0
140
0.0
141
0.0
142
0.0176483894
143
1.0
 70
  1696
 72
     0
 73
     0
 74
     0
  7

 75
     0
147
0.0179189148
148
-1300.4909072572
149
0.0
100
AcDbLayout
  1
Model
 70
     1
 71
     0
 10
0.0
 20
0.0
 11
420.0
 21
297.0
 12
0.0
 22
0.0
 32
0.0
 14
6177.6612802856
 24
4834.8321503594
 34
0.0
 15
6629.8300627174
 25
5311.6461981167
 35
0.0
146
0.0
 13
0.0
 23
0.0
 33
0.0
 16
1.0
 26
0.0
 36
0.0
 17
0.0
 27
1.0
 37
0.0
 76
     0
330
1F
331
29
  0
MLINESTYLE
  5
18
102
{ACAD_REACTORS
330
17
102
}
330
17
100
AcDbMlineStyle
  2
Standard
 70
     0
  3

 62
   256
 51
90.0
 52
90.0
 71
     2
 49
0.5
 62
   256
  6
BYLAYER
 49
-0.5
 62
   256
  6
BYLAYER
  0
ACDBPLACEHOLDER
  5
F
102
{ACAD_REACTORS
330
E
102
}
330
E
  0
SCALE
  5
48
102
{ACAD_REACTORS
330
47
102
}
330
47
100
AcDbScale
 70
     0
300
1:1
140
1.0
141
1.0
290
     1
  0
SCALE
  5
49
102
{ACAD_REACTORS
330
47
102
}
330
47
100
AcDbScale
 70
     0
300
1:2
140
1.0
141
2.0
290
     0
  0
SCALE
  5
4A
102
{ACAD_REACTORS
330
47
102
}
330
47
100
AcDbScale
 70
     0
300
1:4
140
1.0
141
4.0
290
     0
  0
SCALE
  5
4B
102
{ACAD_REACTORS
330
47
102
}
330
47
100
AcDbScale
 70
     0
300
1:5
140
1.0
141
5.0
290
     0
  0
SCALE
  5
4C
102
{ACAD_REACTORS
330
47
102
}
330
47
100
AcDbScale
 70
     0
300
1:8
140
1.0
141
8.0
290
     0
  0
SCALE
  5
4D
102
{ACAD_REACTORS
330
47
102
}
330
47
100
AcDbScale
 70
     0
300
1:10
140
1.0
141
10.0
290
     0
  0
SCALE
  5
4E
102
{ACAD_REACTORS
330
47
102
}
330
47
100
AcDbScale
 70
     0
300
1:16
140
1.0
141
16.0
290
     0
  0
SCALE
  5
4F
102
{ACAD_REACTORS
330
47
102
}
330
47
100
AcDbScale
 70
     0
300
1:20
140
1.0
141
20.0
290
     0
  0
SCALE
  5
50
102
{ACAD_REACTORS
330
47
102
}
330
47
100
AcDbScale
 70
     0
300
1:30
140
1.0
141
30.0
290
     0
  0
SCALE
  5
51
102
{ACAD_REACTORS
330
47
102
}
330
47
100
AcDbScale
 70
     0
300
1:40
140
1.0
141
40.0
290
     0
  0
SCALE
  5
52
102
{ACAD_REACTORS
330
47
102
}
330
47
100
AcDbScale
 70
     0
300
1:50
140
1.0
141
50.0
290
     0
  0
SCALE
  5
53
102
{ACAD_REACTORS
330
47
102
}
330
47
100
AcDbScale
 70
     0
300
1:100
140
1.0
141
100.0
290
     0
  0
SCALE
  5
54
102
{ACAD_REACTORS
330
47
102
}
330
47
100
AcDbScale
 70
     0
300
2:1
140
2.0
141
1.0
290
     0
  0
SCALE
  5
55
102
{ACAD_REACTORS
330
47
102
}
330
47
100
AcDbScale
 70
     0
300
4:1
140
4.0
141
1.0
290
     0
  0
SCALE
  5
56
102
{ACAD_REACTORS
330
47
102
}
330
47
100
AcDbScale
 70
     0
300
8:1
140
8.0
141
1.0
290
     0
  0
SCALE
  5
57
102
{ACAD_REACTORS
330
47
102
}
330
47
100
AcDbScale
 70
     0
300
10:1
140
10.0
141
1.0
290
     0
  0
SCALE
  5
58
102
{ACAD_REACTORS
330
47
102
}
330
47
100
AcDbScale
 70
     0
300
100:1
140
100.0
141
1.0
290
     0
  0
SCALE
  5
59
102
{ACAD_REACTORS
330
47
102
}
330
47
100
AcDbScale
 70
     0
300
1/128" = 1'-0"
140
0.0078125
141
12.0
290
     0
  0
SCALE
  5
5A
102
{ACAD_REACTORS
330
47
102
}
330
47
100
AcDbScale
 70
     0
300
1/64" = 1'-0"
140
0.015625
141
12.0
290
     0
  0
SCALE
  5
5B
102
{ACAD_REACTORS
330
47
102
}
330
47
100
AcDbScale
 70
     0
300
1/32" = 1'-0"
140
0.03125
141
12.0
290
     0
  0
SCALE
  5
5C
102
{ACAD_REACTORS
330
47
102
}
330
47
100
AcDbScale
 70
     0
300
1/16" = 1'-0"
140
0.0625
141
12.0
290
     0
  0
SCALE
  5
5D
102
{ACAD_REACTORS
330
47
102
}
330
47
100
AcDbScale
 70
     0
300
3/32" = 1'-0"
140
0.09375
141
12.0
290
     0
  0
SCALE
  5
5E
102
{ACAD_REACTORS
330
47
102
}
330
47
100
AcDbScale
 70
     0
300
1/8" = 1'-0"
140
0.125
141
12.0
290
     0
  0
SCALE
  5
5F
102
{ACAD_REACTORS
330
47
102
}
330
47
100
AcDbScale
 70
     0
300
3/16" = 1'-0"
140
0.1875
141
12.0
290
     0
  0
SCALE
  5
60
102
{ACAD_REACTORS
330
47
102
}
330
47
100
AcDbScale
 70
     0
300
1/4" = 1'-0"
140
0.25
141
12.0
290
     0
  0
SCALE
  5
61
102
{ACAD_REACTORS
330
47
102
}
330
47
100
AcDbScale
 70
     0
300
3/8" = 1'-0"
140
0.375
141
12.0
290
     0
  0
SCALE
  5
62
102
{ACAD_REACTORS
330
47
102
}
330
47
100
AcDbScale
 70
     0
300
1/2" = 1'-0"
140
0.5
141
12.0
290
     0
  0
SCALE
  5
63
102
{ACAD_REACTORS
330
47
102
}
330
47
100
AcDbScale
 70
     0
300
3/4" = 1'-0"
140
0.75
141
12.0
290
     0
  0
SCALE
  5
64
102
{ACAD_REACTORS
330
47
102
}
330
47
100
AcDbScale
 70
     0
300
1" = 1'-0"
140
1.0
141
12.0
290
     0
  0
SCALE
  5
65
102
{ACAD_REACTORS
330
47
102
}
330
47
100
AcDbScale
 70
     0
300
1-1/2" = 1'-0"
140
1.5
141
12.0
290
     0
  0
SCALE
  5
66
102
{ACAD_REACTORS
330
47
102
}
330
47
100
AcDbScale
 70
     0
300
3" = 1'-0"
140
3.0
141
12.0
290
     0
  0
SCALE
  5
67
102
{ACAD_REACTORS
330
47
102
}
330
47
100
AcDbScale
 70
     0
300
6" = 1'-0"
140
6.0
141
12.0
290
     0
  0
SCALE
  5
68
102
{ACAD_REACTORS
330
47
102
}
330
47
100
AcDbScale
 70
     0
300
1'-0" = 1'-0"
140
12.0
141
12.0
290
     0
  0
ENDSEC
  0
EOF
