  0
SECTION
  2
HEADER
  9
$ACADVER
  1
AC1015
  9
$ACADMAINTVER
 70
     6
  9
$DWGCODEPAGE
  3
ANSI_1250
  9
$INSBASE
 10
0.0
 20
0.0
 30
0.0
  9
$EXTMIN
 10
0.0
 20
0.0
 30
0.0
  9
$EXTMAX
 10
20000.0
 20
10000.0
 30
0.0
  9
$LIMMIN
 10
0.0
 20
0.0
  9
$LIMMAX
 10
20000.0
 20
10000.0
  9
$ORTHOMODE
 70
     0
  9
$REGENMODE
 70
     1
  9
$FILLMODE
 70
     1
  9
$QTEXTMODE
 70
     0
  9
$MIRRTEXT
 70
     1
  9
$LTSCALE
 40
1.0
  9
$ATTMODE
 70
     1
  9
$TEXTSIZE
 40
2.0
  9
$TRACEWID
 40
1.0
  9
$TEXTSTYLE
  7
Standard
  9
$CLAYER
  8
0
  9
$CELTYPE
  6
ByLayer
  9
$CECOLOR
 62
   256
  9
$CELTSCALE
 40
1.0
  9
$DISPSILH
 70
     0
  9
$DIMSCALE
 40
1.0
  9
$DIMASZ
 40
2.0
  9
$DIMEXO
 40
1.0
  9
$DIMDLI
 40
3.75
  9
$DIMRND
 40
0.0
  9
$DIMDLE
 40
0.0
  9
$DIMEXE
 40
1.0
  9
$DIMTP
 40
0.0
  9
$DIMTM
 40
0.0
  9
$DIMTXT
 40
2.0
  9
$DIMCEN
 40
2.5
  9
$DIMTSZ
 40
0.0
  9
$DIMTOL
 70
     0
  9
$DIMLIM
 70
     0
  9
$DIMTIH
 70
     1
  9
$DIMTOH
 70
     1
  9
$DIMSE1
 70
     0
  9
$DIMSE2
 70
     0
  9
$DIMTAD
 70
     1
  9
$DIMZIN
 70
     0
  9
$DIMBLK
  1

  9
$DIMASO
 70
     1
  9
$DIMSHO
 70
     1
  9
$DIMPOST
  1

  9
$DIMAPOST
  1

  9
$DIMALT
 70
     0
  9
$DIMALTD
 70
     3
  9
$DIMALTF
 40
0.0393700787
  9
$DIMLFAC
 40
1.0
  9
$DIMTOFL
 70
     1
  9
$DIMTVP
 40
0.0
  9
$DIMTIX
 70
     0
  9
$DIMSOXD
 70
     0
  9
$DIMSAH
 70
     0
  9
$DIMBLK1
  1

  9
$DIMBLK2
  1

  9
$DIMSTYLE
  2
ISO-25
  9
$DIMCLRD
 70
     0
  9
$DIMCLRE
 70
     0
  9
$DIMCLRT
 70
     0
  9
$DIMTFAC
 40
1.0
  9
$DIMGAP
 40
1.524
  9
$DIMJUST
 70
     0
  9
$DIMSD1
 70
     0
  9
$DIMSD2
 70
     0
  9
$DIMTOLJ
 70
     0
  9
$DIMTZIN
 70
     0
  9
$DIMALTZ
 70
     0
  9
$DIMALTTZ
 70
     0
  9
$DIMUPT
 70
     0
  9
$DIMDEC
 70
     2
  9
$DIMTDEC
 70
     0
  9
$DIMALTU
 70
     2
  9
$DIMALTTD
 70
     3
  9
$DIMTXSTY
  7
Standard
  9
$DIMAUNIT
 70
     0
  9
$DIMADEC
 70
     2
  9
$DIMALTRND
 40
0.0
  9
$DIMAZIN
 70
     0
  9
$DIMDSEP
 70
    44
  9
$DIMATFIT
 70
     3
  9
$DIMFRAC
 70
     0
  9
$DIMLDRBLK
  1

  9
$DIMLUNIT
 70
     2
  9
$DIMLWD
 70
    -2
  9
$DIMLWE
 70
    -2
  9
$DIMTMOVE
 70
     0
  9
$LUNITS
 70
     2
  9
$LUPREC
 70
     3
  9
$SKETCHINC
 40
1.0
  9
$FILLETRAD
 40
10.0
  9
$AUNITS
 70
     0
  9
$AUPREC
 70
     2
  9
$MENU
  1
.
  9
$ELEVATION
 40
0.0
  9
$PELEVATION
 40
0.0
  9
$THICKNESS
 40
0.0
  9
$LIMCHECK
 70
     0
  9
$CHAMFERA
 40
0.0
  9
$CHAMFERB
 40
0.0
  9
$CHAMFERC
 40
0.0
  9
$CHAMFERD
 40
0.0
  9
$SKPOLY
 70
     0
  9
$TDCREATE
 40
2459891.349899271
  9
$TDUCREATE
 40
2459891.308232604
  9
$TDUPDATE
 40
2459891.349899514
  9
$TDUUPDATE
 40
2459891.308232847
  9
$TDINDWG
 40
0.0000000116
  9
$TDUSRTIMER
 40
0.0000000116
  9
$USRTIMER
 70
     1
  9
$ANGBASE
 50
0.0
  9
$ANGDIR
 70
     0
  9
$PDMODE
 70
     0
  9
$PDSIZE
 40
-1.0
  9
$PLINEWID
 40
0.0
  9
$SPLFRAME
 70
     0
  9
$SPLINETYPE
 70
     6
  9
$SPLINESEGS
 70
     8
  9
$HANDSEED
  5
F4
  9
$SURFTAB1
 70
     6
  9
$SURFTAB2
 70
     6
  9
$SURFTYPE
 70
     6
  9
$SURFU
 70
     6
  9
$SURFV
 70
     6
  9
$UCSBASE
  2

  9
$UCSNAME
  2

  9
$UCSORG
 10
0.0
 20
0.0
 30
0.0
  9
$UCSXDIR
 10
1.0
 20
0.0
 30
0.0
  9
$UCSYDIR
 10
0.0
 20
1.0
 30
0.0
  9
$UCSORTHOREF
  2

  9
$UCSORTHOVIEW
 70
     0
  9
$UCSORGTOP
 10
0.0
 20
0.0
 30
0.0
  9
$UCSORGBOTTOM
 10
0.0
 20
0.0
 30
0.0
  9
$UCSORGLEFT
 10
0.0
 20
0.0
 30
0.0
  9
$UCSORGRIGHT
 10
0.0
 20
0.0
 30
0.0
  9
$UCSORGFRONT
 10
0.0
 20
0.0
 30
0.0
  9
$UCSORGBACK
 10
0.0
 20
0.0
 30
0.0
  9
$PUCSBASE
  2

  9
$PUCSNAME
  2

  9
$PUCSORG
 10
0.0
 20
0.0
 30
0.0
  9
$PUCSXDIR
 10
1.0
 20
0.0
 30
0.0
  9
$PUCSYDIR
 10
0.0
 20
1.0
 30
0.0
  9
$PUCSORTHOREF
  2

  9
$PUCSORTHOVIEW
 70
     0
  9
$PUCSORGTOP
 10
0.0
 20
0.0
 30
0.0
  9
$PUCSORGBOTTOM
 10
0.0
 20
0.0
 30
0.0
  9
$PUCSORGLEFT
 10
0.0
 20
0.0
 30
0.0
  9
$PUCSORGRIGHT
 10
0.0
 20
0.0
 30
0.0
  9
$PUCSORGFRONT
 10
0.0
 20
0.0
 30
0.0
  9
$PUCSORGBACK
 10
0.0
 20
0.0
 30
0.0
  9
$USERI1
 70
     0
  9
$USERI2
 70
     0
  9
$USERI3
 70
     0
  9
$USERI4
 70
     0
  9
$USERI5
 70
     0
  9
$USERR1
 40
0.0
  9
$USERR2
 40
0.0
  9
$USERR3
 40
0.0
  9
$USERR4
 40
0.0
  9
$USERR5
 40
0.0
  9
$WORLDVIEW
 70
     1
  9
$SHADEDGE
 70
     3
  9
$SHADEDIF
 70
    70
  9
$TILEMODE
 70
     1
  9
$MAXACTVP
 70
    64
  9
$PINSBASE
 10
0.0
 20
0.0
 30
0.0
  9
$PLIMCHECK
 70
     0
  9
$PEXTMIN
 10
1.0000000000E+20
 20
1.0000000000E+20
 30
1.0000000000E+20
  9
$PEXTMAX
 10
-1.0000000000E+20
 20
-1.0000000000E+20
 30
-1.0000000000E+20
  9
$PLIMMIN
 10
0.0
 20
0.0
  9
$PLIMMAX
 10
420.0
 20
297.0
  9
$UNITMODE
 70
     0
  9
$VISRETAIN
 70
     1
  9
$PLINEGEN
 70
     0
  9
$PSLTSCALE
 70
     1
  9
$TREEDEPTH
 70
  3020
  9
$CMLSTYLE
  2
Standard
  9
$CMLJUST
 70
     0
  9
$CMLSCALE
 40
20.0
  9
$PROXYGRAPHICS
 70
     1
  9
$MEASUREMENT
 70
     1
  9
$CELWEIGHT
370
    -1
  9
$ENDCAPS
280
     0
  9
$JOINSTYLE
280
     0
  9
$LWDISPLAY
290
     1
  9
$INSUNITS
 70
     4
  9
$HYPERLINKBASE
  1

  9
$STYLESHEET
  1

  9
$XEDIT
290
     1
  9
$CEPSNTYPE
380
     0
  9
$PSTYLEMODE
290
     1
  9
$FINGERPRINTGUID
  2
{20e17d80-92fe-48f8-a1c4-6fce113f78bf}
  9
$VERSIONGUID
  2
{FAEB1C32-E019-11D5-929B-00C0DF256EC4}
  9
$EXTNAMES
290
     1
  9
$PSVPSCALE
 40
0.0
  9
$OLESTARTUP
290
     0
  0
ENDSEC
  0
SECTION
  2
CLASSES
  0
CLASS
  1
ACDBDICTIONARYWDFLT
  2
AcDbDictionaryWithDefault
  3
ObjectDBX Classes
 90
        0
280
     0
281
     0
  0
CLASS
  1
VISUALSTYLE
  2
AcDbVisualStyle
  3
ObjectDBX Classes
 90
     4095
280
     0
281
     0
  0
CLASS
  1
MATERIAL
  2
AcDbMaterial
  3
ObjectDBX Classes
 90
     1153
280
     0
281
     0
  0
CLASS
  1
SCALE
  2
AcDbScale
  3
ObjectDBX Classes
 90
     1153
280
     0
281
     0
  0
CLASS
  1
TABLESTYLE
  2
AcDbTableStyle
  3
ObjectDBX Classes
 90
     4095
280
     0
281
     0
  0
CLASS
  1
MLEADERSTYLE
  2
AcDbMLeaderStyle
  3
ACDB_MLEADERSTYLE_CLASS
 90
     4095
280
     0
281
     0
  0
CLASS
  1
SUN
  2
AcDbSun
  3
SCENEOE
 90
     1153
280
     0
281
     0
  0
CLASS
  1
ACDBPLACEHOLDER
  2
AcDbPlaceHolder
  3
ObjectDBX Classes
 90
        0
280
     0
281
     0
  0
CLASS
  1
LAYOUT
  2
AcDbLayout
  3
ObjectDBX Classes
 90
        0
280
     0
281
     0
  0
ENDSEC
  0
SECTION
  2
TABLES
  0
TABLE
  2
VPORT
  5
8
330
0
100
AcDbSymbolTable
 70
     1
  0
VPORT
  5
29
330
8
100
AcDbSymbolTableRecord
100
AcDbViewportTableRecord
  2
*Active
 70
     0
 10
0.0
 20
0.0
 11
1.0
 21
1.0
 12
10000.0
 22
5000.0
 13
0.0
 23
0.0
 14
10.0
 24
10.0
 15
10.0
 25
10.0
 16
0.0
 26
0.0
 36
1.0
 17
0.0
 27
0.0
 37
0.0
 40
10000.0
 41
2.0
 42
50.0
 43
0.0
 44
0.0
 50
0.0
 51
0.0
 71
     0
 72
  2000
 73
     1
 74
     3
 75
     0
 76
     0
 77
     0
 78
     0
281
     0
 65
     1
110
0.0
120
0.0
130
0.0
111
1.0
121
0.0
131
0.0
112
0.0
122
1.0
132
0.0
 79
     0
146
0.0
  0
ENDTAB
  0
TABLE
  2
LTYPE
  5
5
330
0
100
AcDbSymbolTable
 70
     6
  0
LTYPE
  5
14
330
5
100
AcDbSymbolTableRecord
100
AcDbLinetypeTableRecord
  2
ByBlock
 70
     0
  3

 72
    65
 73
     0
 40
0.0
  0
LTYPE
  5
15
330
5
100
AcDbSymbolTableRecord
100
AcDbLinetypeTableRecord
  2
ByLayer
 70
     0
  3

 72
    65
 73
     0
 40
0.0
  0
LTYPE
  5
16
330
5
100
AcDbSymbolTableRecord
100
AcDbLinetypeTableRecord
  2
Continuous
 70
     0
  3
Solid line
 72
    65
 73
     0
 40
0.0
  0
LTYPE
  5
6E
330
5
100
AcDbSymbolTableRecord
100
AcDbLinetypeTableRecord
  2
HIDDEN
 70
     0
  3
Hidden __ __ __ __ __ __ __ __ __ __ __ __ __ __
 72
    65
 73
     2
 40
1.905
 49
1.27
 74
     0
 49
-0.635
 74
     0
  0
LTYPE
  5
6F
330
5
100
AcDbSymbolTableRecord
100
AcDbLinetypeTableRecord
  2
PHANTOM
 70
     0
  3
Phantom ______  __  __  ______  __  __  ______
 72
    65
 73
     6
 40
12.7
 49
6.35
 74
     0
 49
-1.27
 74
     0
 49
1.27
 74
     0
 49
-1.27
 74
     0
 49
1.27
 74
     0
 49
-1.27
 74
     0
  0
LTYPE
  5
70
330
5
100
AcDbSymbolTableRecord
100
AcDbLinetypeTableRecord
  2
CENTER
 70
     0
  3
Center ____ _ ____ _ ____ _ ____ _ ____ _ ____
 72
    65
 73
     4
 40
10.16
 49
6.35
 74
     0
 49
-1.27
 74
     0
 49
1.27
 74
     0
 49
-1.27
 74
     0
  0
LTYPE
  5
71
330
5
100
AcDbSymbolTableRecord
100
AcDbLinetypeTableRecord
  2
CENTERX2
 70
     0
  3
Center (2x) ________  __  ________  __  _____
 72
    65
 73
     4
 40
20.32
 49
12.7
 74
     0
 49
-2.54
 74
     0
 49
2.54
 74
     0
 49
-2.54
 74
     0
  0
LTYPE
  5
72
330
5
100
AcDbSymbolTableRecord
100
AcDbLinetypeTableRecord
  2
DOT2
 70
     0
  3
Dot (.5x) ........................................
 72
    65
 73
     2
 40
0.635
 49
0.0
 74
     0
 49
-0.635
 74
     0
  0
ENDTAB
  0
TABLE
  2
LAYER
  5
2
330
0
100
AcDbSymbolTable
 70
    13
  0
LAYER
  5
10
330
2
100
AcDbSymbolTableRecord
100
AcDbLayerTableRecord
  2
0
 70
     0
 62
     7
  6
Continuous
370
    -3
390
F
  0
LAYER
  5
73
330
2
100
AcDbSymbolTableRecord
100
AcDbLayerTableRecord
  2
FORMAT
 70
     0
 62
     7
  6
Continuous
370
    -3
390
F
  0
LAYER
  5
74
330
2
100
AcDbSymbolTableRecord
100
AcDbLayerTableRecord
  2
OSA
 70
     0
 62
     7
  6
CENTER
370
    -3
390
F
  0
LAYER
  5
75
330
2
100
AcDbSymbolTableRecord
100
AcDbLayerTableRecord
  2
0_35
 70
     0
 62
     7
  6
Continuous
370
    35
390
F
  0
LAYER
  5
76
330
2
100
AcDbSymbolTableRecord
100
AcDbLayerTableRecord
  2
0_5
 70
     0
 62
     7
  6
Continuous
370
    50
390
F
  0
LAYER
  5
77
330
2
100
AcDbSymbolTableRecord
100
AcDbLayerTableRecord
  2
0_25
 70
     0
 62
     7
  6
Continuous
370
    25
390
F
  0
LAYER
  5
78
330
2
100
AcDbSymbolTableRecord
100
AcDbLayerTableRecord
  2
0_18
 70
     0
 62
     7
  6
Continuous
370
    -3
390
F
  0
LAYER
  5
79
330
2
100
AcDbSymbolTableRecord
100
AcDbLayerTableRecord
  2
SLD-0
 70
     0
 62
   179
  6
Continuous
370
    -3
390
F
  0
LAYER
  5
7A
330
2
100
AcDbSymbolTableRecord
100
AcDbLayerTableRecord
  2
KOTY
 70
     0
 62
     7
  6
Continuous
370
    -3
390
F
  0
LAYER
  5
7B
330
2
100
AcDbSymbolTableRecord
100
AcDbLayerTableRecord
  2
SILNA
 70
     0
 62
   179
  6
Continuous
370
    -3
390
F
  0
LAYER
  5
7C
330
2
100
AcDbSymbolTableRecord
100
AcDbLayerTableRecord
  2
0_18_1
 70
     0
 62
   179
  6
Continuous
370
    -3
390
F
  0
LAYER
  5
7D
330
2
100
AcDbSymbolTableRecord
100
AcDbLayerTableRecord
  2
0_35_1
 70
     0
 62
   179
  6
Continuous
370
    35
390
F
  0
LAYER
  5
7E
330
2
100
AcDbSymbolTableRecord
100
AcDbLayerTableRecord
  2
0_5_1
 70
     0
 62
   179
  6
Continuous
370
    50
390
F
  0
ENDTAB
  0
TABLE
  2
STYLE
  5
3
330
0
100
AcDbSymbolTable
 70
     1
  0
STYLE
  5
11
330
3
100
AcDbSymbolTableRecord
100
AcDbTextStyleTableRecord
  2
Standard
 70
     0
 40
0.0
 41
1.0
 50
0.0
 71
     0
 42
2.0
  3
txt
  4

  0
ENDTAB
  0
TABLE
  2
VIEW
  5
6
330
0
100
AcDbSymbolTable
 70
     0
  0
ENDTAB
  0
TABLE
  2
UCS
  5
7
330
0
100
AcDbSymbolTable
 70
     0
  0
ENDTAB
  0
TABLE
  2
APPID
  5
9
330
0
100
AcDbSymbolTable
 70
     1
  0
APPID
  5
12
330
9
100
AcDbSymbolTableRecord
100
AcDbRegAppTableRecord
  2
ACAD
 70
     0
  0
ENDTAB
  0
TABLE
  2
DIMSTYLE
  5
A
330
0
100
AcDbSymbolTable
 70
     1
100
AcDbDimStyleTable
  0
DIMSTYLE
105
27
330
A
100
AcDbSymbolTableRecord
100
AcDbDimStyleTableRecord
  2
ISO-25
 70
     0
 41
2.5
 42
0.625
 43
3.75
 44
1.25
 73
     0
 74
     0
 77
     1
 78
     8
140
2.5
141
2.5
143
0.0393700787
147
0.625
171
     3
172
     1
178
     0
271
     2
272
     2
274
     3
278
    44
283
     0
284
     8
340
11
  0
ENDTAB
  0
TABLE
  2
BLOCK_RECORD
  5
1
330
0
100
AcDbSymbolTable
 70
     1
  0
BLOCK_RECORD
  5
1F
330
1
100
AcDbSymbolTableRecord
100
AcDbBlockTableRecord
  2
*Model_Space
340
22
  0
BLOCK_RECORD
  5
1B
330
1
100
AcDbSymbolTableRecord
100
AcDbBlockTableRecord
  2
*Paper_Space
340
1E
  0
BLOCK_RECORD
  5
23
330
1
100
AcDbSymbolTableRecord
100
AcDbBlockTableRecord
  2
*Paper_Space0
340
26
  0
ENDTAB
  0
ENDSEC
  0
SECTION
  2
BLOCKS
  0
BLOCK
  5
20
330
1F
100
AcDbEntity
  8
0
100
AcDbBlockBegin
  2
*Model_Space
 70
     0
 10
0.0
 20
0.0
 30
0.0
  3
*Model_Space
  1

  0
ENDBLK
  5
21
330
1F
100
AcDbEntity
  8
0
100
AcDbBlockEnd
  0
BLOCK
  5
1C
330
1B
100
AcDbEntity
 67
     1
  8
0
100
AcDbBlockBegin
  2
*Paper_Space
 70
     0
 10
0.0
 20
0.0
 30
0.0
  3
*Paper_Space
  1

  0
ENDBLK
  5
1D
330
1B
100
AcDbEntity
 67
     1
  8
0
100
AcDbBlockEnd
  0
BLOCK
  5
24
330
23
100
AcDbEntity
  8
0
100
AcDbBlockBegin
  2
*Paper_Space0
 70
     0
 10
0.0
 20
0.0
 30
0.0
  3
*Paper_Space0
  1

  0
ENDBLK
  5
25
330
23
100
AcDbEntity
  8
0
100
AcDbBlockEnd
  0
ENDSEC
  0
SECTION
  2
ENTITIES
  0
LWPOLYLINE
  5
7F
330
1F
100
AcDbEntity
  8
0
  6
Continuous
 62
     7
370
    25
100
AcDbPolyline
 90
       26
 70
   128
 43
0.0
 10
6419.2127684095
 20
5338.7498637279
 10
6418.9725880037
 20
5342.9640434986
 10
6418.309311659
 20
5349.0553791505
 10
6417.3314349355
 20
5355.127217701
 10
6416.0388664683
 20
5361.1810931032
 10
6414.4311217258
 20
5367.2186565402
 10
6412.5068029727
 20
5373.2430854768
 10
6410.2680137574
 20
5379.2436185449
 10
6407.7382131341
 20
5385.1482002833
 10
6404.9336598504
 20
5390.9227612938
 10
6401.8573344739
 20
5396.5697820459
 10
6398.5121348163
 20
5402.0908444441
 10
6394.9004865148
 20
5407.487554143
 10
6391.0243329665
 20
5412.7615205573
 10
6386.8851266894
 20
5417.9143377132
 10
6382.4838543592
 20
5422.9475266221
 10
6377.8320381806
 20
5427.8480473453
 10
6372.9981713187
 20
5432.5443765697
 10
6367.9942646784
 20
5437.03246489
 10
6362.8262242782
 20
5441.3145654977
 10
6357.4990328327
 20
5445.3933820987
 10
6352.0167996795
 20
5449.2718942378
 10
6346.3827758484
 20
5452.9532391803
 10
6340.5993713104
 20
5456.4406094072
 10
6334.6681746902
 20
5459.7371629879
 10
6330.0575229417
 20
5462.119113583
  0
LWPOLYLINE
  5
80
330
1F
100
AcDbEntity
  8
0
  6
Continuous
 62
     7
370
    25
100
AcDbPolyline
 90
       57
 70
   128
 43
0.0
 10
6330.0575229417
 20
5462.119113583
 10
6326.8402136418
 20
5463.691253651
 10
6320.837344219
 20
5466.4319983501
 10
6314.6607657923
 20
5469.0061900023
 10
6308.3802289857
 20
5471.3840536164
 10
6302.0161486412
 20
5473.5603683827
 10
6295.5873134152
 20
5475.5314305839
 10
6289.11088272
 20
5477.294830713
 10
6282.6022891127
 20
5478.8492782558
 10
6276.0751995048
 20
5480.1944141473
 10
6269.541527576
 20
5481.3306193382
 10
6263.011488522
 20
5482.2588265718
 10
6256.4936873455
 20
5482.9803408653
 10
6250.0005983137
 20
5483.4945030492
 10
6243.6383064875
 20
5483.7988270197
 10
6237.2309405323
 20
5483.9112236866
 10
6230.7628404911
 20
5483.8314171213
 10
6224.2504457684
 20
5483.5576365478
 10
6217.7116824115
 20
5483.0886584815
 10
6211.1660769061
 20
5482.4239366515
 10
6204.6346138629
 20
5481.5637276964
 10
6198.1395295967
 20
5480.5091994639
 10
6191.704042565
 20
5479.2625147583
 10
6185.3520273913
 20
5477.8268839254
 10
6179.1076440143
 20
5476.2065809219
 10
6172.9978958724
 20
5474.4078903023
 10
6167.0242333254
 20
5472.4396694816
 10
6160.9712365641
 20
5470.2317994877
 10
6154.9606380837
 20
5467.8185894029
 10
6149.0132444226
 20
5465.2036361945
 10
6143.1538436685
 20
5462.3931011471
 10
6137.4101622635
 20
5459.3960135729
 10
6131.8029239259
 20
5456.2247659172
 10
6126.252791075
 20
5452.8284955489
 10
6120.8418271475
 20
5449.2490873192
 10
6115.562150516
 20
5445.4782411873
 10
6110.406895531
 20
5441.5070007502
 10
6105.3867834814
 20
5437.3399948723
 10
6100.5011296063
 20
5432.9665040955
 10
6095.8116300006
 20
5428.4320823249
 10
6091.326141062
 20
5423.7402675351
 10
6087.0475256454
 20
5418.8899531315
 10
6082.9792598478
 20
5413.8803144094
 10
6079.1253691161
 20
5408.7108399174
 10
6075.4904069248
 20
5403.3814143623
 10
6072.0794289416
 20
5397.8924112673
 10
6068.8963878303
 20
5392.2397404409
 10
6065.9572912721
 20
5386.4306537894
 10
6063.3043954925
 20
5380.5356748911
 10
6060.9401743221
 20
5374.5564358699
 10
6058.8711794398
 20
5368.5039597947
 10
6057.1032423389
 20
5362.3897671974
 10
6055.641405019
 20
5356.225815362
 10
6054.4898507076
 20
5350.024398943
 10
6053.6518502101
 20
5343.7980426077
 10
6053.1298103921
 20
5337.5608454973
 10
6053.0589152912
 20
5335.404063502
  0
LWPOLYLINE
  5
81
330
1F
100
AcDbEntity
  8
0
  6
Continuous
 62
     7
370
    25
100
AcDbPolyline
 90
       58
 70
   128
 43
0.0
 10
6053.6043692183
 20
5317.7021804074
 10
6053.8682795032
 20
5315.0608639765
 10
6055.2877704564
 20
5300.7689602937
 10
6056.5843311581
 20
5287.6408030696
 10
6057.7622449724
 20
5275.6506153359
 10
6058.8332886606
 20
5264.6942069687
 10
6059.7998916311
 20
5254.7605637381
 10
6060.5446856802
 20
5247.0760331346
 10
6061.214721126
 20
5240.1396464715
 10
6061.8106638936
 20
5233.951403749
 10
6062.3331199909
 20
5228.5113049669
 10
6062.8538152339
 20
5223.0753824639
 10
6063.4340831747
 20
5217.0005807542
 10
6064.0819636133
 20
5210.1964383289
 10
6064.8069110791
 20
5202.5555304309
 10
6065.6273903435
 20
5193.8722959782
 10
6066.56221537
 20
5183.9322034836
 10
6067.5940306889
 20
5172.9015562661
 10
6068.7209922158
 20
5160.7803543257
 10
6069.9289553512
 20
5147.6991818393
 10
6071.1283405881
 20
5134.6143155318
 10
6072.3014221317
 20
5121.7178780429
 10
6073.4483280667
 20
5109.0098693727
 10
6075.9095482416
 20
5081.3828829752
 10
6078.2438578151
 20
5054.6906436719
 10
6080.4538854772
 20
5028.9331514628
 10
6082.5426585638
 20
5004.110406348
 10
6083.589496411
 20
4991.4810670443
 10
6084.5961547428
 20
4979.2103760847
 10
6085.5195485086
 20
4967.8416204799
 10
6086.3553022408
 20
4957.454637457
 10
6087.1054697192
 20
4948.0494270159
 10
6087.7719473417
 20
4939.6259891568
 10
6088.3316502943
 20
4932.5012826067
 10
6088.8180283614
 20
4926.2711250414
 10
6089.232282322
 20
4920.9355164607
 10
6089.5754551693
 20
4916.4944568648
 10
6089.7271467516
 20
4914.5251957643
 10
6089.8596883622
 20
4912.8013778092
 10
6089.9740353726
 20
4911.3117992452
 10
6090.0854461667
 20
4909.8583132525
 10
6090.1994962638
 20
4908.3681725631
 10
6090.332862641
 20
4906.6227816601
 10
6090.5179777428
 20
4904.1949948197
 10
6090.7748165822
 20
4900.8165518324
 10
6091.1026247398
 20
4896.4874526983
 10
6091.5004239778
 20
4891.2076974173
 10
6091.9670025169
 20
4884.9772859896
 10
6092.5009035564
 20
4877.7962184149
 10
6093.1004123103
 20
4869.6644946935
 10
6093.7635418746
 20
4860.5821148252
 10
6094.5963764845
 20
4849.0381833674
 10
6095.5054476491
 20
4836.2525785749
 10
6096.4863296462
 20
4822.2253004477
 10
6097.5340220616
 20
4806.9563489859
 10
6098.6429232168
 20
4790.4457241895
 10
6099.8068070074
 20
4772.6934260584
 10
6100.4881549066
 20
4762.0155948258
  0
LWPOLYLINE
  5
82
330
1F
100
AcDbEntity
  8
0
  6
Continuous
 62
     7
370
    25
100
AcDbPolyline
 90
       53
 70
   128
 43
0.0
 10
6371.5454679661
 20
4761.957457944
 10
6372.1953059612
 20
4772.1450609561
 10
6373.3259790232
 20
4789.4089169775
 10
6374.4043374023
 20
4805.4910226569
 10
6375.424582155
 20
4820.3913779943
 10
6376.3814919187
 20
4834.1099829898
 10
6377.2703999457
 20
4846.6468376432
 10
6378.0871681012
 20
4858.0019419547
 10
6378.8281589064
 20
4868.1752959242
 10
6379.5197156075
 20
4877.5655943871
 10
6380.1215169256
 20
4885.6589151504
 10
6380.6309430013
 20
4892.4552582141
 10
6381.0459334988
 20
4897.9558446137
 10
6381.3701424533
 20
4902.2312667121
 10
6381.6054532405
 20
4905.3225761035
 10
6381.7357284373
 20
4907.029812815
 10
6381.825589513
 20
4908.2056977873
 10
6381.9561992237
 20
4909.9123247802
 10
6382.1336815796
 20
4912.2268096144
 10
6382.3583494759
 20
4915.1491522897
 10
6382.6305938188
 20
4918.6793528063
 10
6382.9508825793
 20
4922.817411164
 10
6383.3593428786
 20
4928.0713511642
 10
6383.8274245936
 20
4934.0607991521
 10
6384.3560622526
 20
4940.785755128
 10
6384.9462938769
 20
4948.2462190917
 10
6385.5909311096
 20
4956.3379687534
 10
6387.7864423437
 20
4983.4720480189
 10
6389.9602228133
 20
5009.7314141664
 10
6392.1064472834
 20
5035.1160671961
 10
6394.2193200122
 20
5059.6260071078
 10
6396.2930842849
 20
5083.2612339016
 10
6398.3340526011
 20
5106.1587143094
 10
6402.2540823654
 20
5149.2702041544
 10
6406.2063823046
 20
5191.7102386402
 10
6407.0508256222
 20
5200.6564270539
 10
6407.7782283721
 20
5208.3302967518
 10
6408.3863823553
 20
5214.7236926613
 10
6408.8741134707
 20
5219.8366147826
 10
6409.2449595414
 20
5223.7156994056
 10
6409.6206384576
 20
5227.6379108412
 10
6410.0564271223
 20
5232.1784440419
 10
6410.4462522645
 20
5236.2317761543
 10
6410.8770990376
 20
5240.7026484551
 10
6411.3898970475
 20
5246.0118229548
 10
6411.9994196002
 20
5252.3056279728
 10
6412.7064671983
 20
5259.5840635092
 10
6413.5119492783
 20
5267.8471295638
 10
6414.4168788665
 20
5277.0948261367
 10
6415.4223664318
 20
5287.3271532278
 10
6416.5296128793
 20
5298.5441108373
 10
6417.739901626
 20
5310.745698965
 10
6418.8304514488
 20
5321.680239061
  0
LWPOLYLINE
  5
83
330
1F
100
AcDbEntity
  8
0
  6
Continuous
 62
     7
370
    25
100
AcDbPolyline
 90
       72
 70
   128
 43
0.0
 10
6405.7174747547
 20
5304.618759818
 10
6405.6254156802
 20
5304.2263126582
 10
6403.958068902
 20
5298.4922778373
 10
6401.9928098154
 20
5292.8479905431
 10
6399.7330796482
 20
5287.2945908328
 10
6397.1820241846
 20
5281.8328627579
 10
6394.342430806
 20
5276.4632748069
 10
6391.2178501492
 20
5271.1891418914
 10
6387.8364989316
 20
5266.0579532832
 10
6384.2132595226
 20
5261.0834235486
 10
6380.3489403658
 20
5256.2584586174
 10
6376.253007033
 20
5251.5889261568
 10
6371.9345785556
 20
5247.0795638409
 10
6367.4022734464
 20
5242.7340468211
 10
6362.6641178566
 20
5238.5551175735
 10
6357.7274743593
 20
5234.5447164263
 10
6352.5991559521
 20
5230.7042933714
 10
6347.29145474
 20
5227.0428273891
 10
6341.8588076784
 20
5223.5910588757
 10
6336.256774297
 20
5220.3134146863
 10
6330.5027557494
 20
5217.217627314
 10
6324.6134961978
 20
5214.3100199594
 10
6318.6046639763
 20
5211.5954755607
 10
6312.4907032947
 20
5209.0775794746
 10
6306.2847351577
 20
5206.7587814376
 10
6299.9985020902
 20
5204.6405678227
 10
6293.6423511144
 20
5202.7236370058
 10
6287.226738406
 20
5201.0091494028
 10
6280.8332958206
 20
5199.516301716
 10
6274.3783600242
 20
5198.2170701241
 10
6267.8247576369
 20
5197.1021485891
 10
6261.196959028
 20
5196.1763606954
 10
6254.5186547911
 20
5195.4432542446
 10
6247.8125251103
 20
5194.9052380607
 10
6241.1008006245
 20
5194.5637517499
 10
6234.4049525809
 20
5194.419301308
 10
6227.7454204941
 20
5194.4715240773
 10
6221.1413876858
 20
5194.7192788039
 10
6214.6106110004
 20
5195.1607553835
 10
6208.1720797383
 20
5195.7925696081
 10
6201.8139825673
 20
5196.6092989155
 10
6195.4464509496
 20
5197.6216743434
 10
6189.109674566
 20
5198.8262064154
 10
6182.814393353
 20
5200.22255492
 10
6176.5727357905
 20
5201.8098909856
 10
6170.3980268277
 20
5203.5868032939
 10
6164.3047451579
 20
5205.5511807757
 10
6158.308443145
 20
5207.7001027431
 10
6152.4256279646
 20
5210.0297412222
 10
6146.6736028686
 20
5212.5352807968
 10
6141.0702693713
 20
5215.2108613517
 10
6135.632632171
 20
5218.0481923592
 10
6130.3220436948
 20
5221.0649733606
 10
6125.1256870149
 20
5224.272533487
 10
6120.0667674983
 20
5227.6615657836
 10
6115.1550184145
 20
5231.2298532098
 10
6110.4015185628
 20
5234.9739555299
 10
6105.8185050348
 20
5238.8890866164
 10
6101.419306238
 20
5242.9688966261
 10
6097.2182349216
 20
5247.2052573943
 10
6093.2304359732
 20
5251.5880592541
 10
6089.4682653075
 20
5256.107703143
 10
6085.9083189709
 20
5260.7894029561
 10
6082.5330985385
 20
5265.6724802356
 10
6079.4042251512
 20
5270.6839820649
 10
6076.5271972531
 20
5275.8214717423
 10
6073.9082135384
 20
5281.0812670341
 10
6071.5536938515
 20
5286.4589004858
 10
6069.4701830848
 20
5291.9490341161
 10
6067.6642379937
 20
5297.5453864751
 10
6066.1423008953
 20
5303.2406713668
 10
6066.1416536753
 20
5303.2437115715
  0
ARC
  5
84
330
1F
100
AcDbEntity
  8
0
  6
Continuous
 62
     7
370
    25
100
AcDbCircle
 10
6254.3231483856
 20
5371.8785673517
 30
0.0
 40
16.09278744022918
100
AcDbArc
 50
61.8744733054
 51
90.0
  0
LINE
  5
85
330
1F
100
AcDbEntity
  8
0
  6
Continuous
 62
     7
370
    25
100
AcDbLine
 10
6254.3231483856
 20
5387.9713547919
 30
0.0
 11
6217.7143622866
 21
5387.9713547919
 31
0.0
  0
ARC
  5
86
330
1F
100
AcDbEntity
  8
0
  6
Continuous
 62
     7
370
    25
100
AcDbCircle
 10
6217.7143622866
 20
5371.8785673517
 30
0.0
 40
16.09278744022875
100
AcDbArc
 50
90.0
 51
118.1255266946
  0
LINE
  5
87
330
1F
100
AcDbEntity
  8
0
  6
Continuous
 62
     7
370
    25
100
AcDbLine
 10
6188.5187553361
 20
5388.1270782936
 30
0.0
 11
6197.5312179891
 21
5392.9444464617
 31
0.0
  0
LINE
  5
88
330
1F
100
AcDbEntity
  8
0
  6
Continuous
 62
     7
370
    25
100
AcDbLine
 10
6273.8973934828
 20
5393.2699170615
 30
0.0
 11
6283.5187553361
 21
5388.1270782936
 31
0.0
  0
LINE
  5
89
330
1F
100
AcDbEntity
  8
0
  6
Continuous
 62
     7
370
    25
100
AcDbLine
 10
6283.5187553361
 20
5388.1270782936
 30
0.0
 11
6277.8618972091
 21
5377.5440751219
 31
0.0
  0
LINE
  5
8A
330
1F
100
AcDbEntity
  8
0
  6
Continuous
 62
     7
370
    25
100
AcDbLine
 10
6210.1281443352
 20
5386.0710690618
 30
0.0
 11
6194.1756134631
 21
5377.5440751219
 31
0.0
  0
LINE
  5
8B
330
1F
100
AcDbEntity
  8
0
  6
Continuous
 62
     7
370
    25
100
AcDbLine
 10
6194.1756134631
 20
5377.5440751219
 30
0.0
 11
6188.5187553361
 21
5388.1270782936
 31
0.0
  0
LINE
  5
8C
330
1F
100
AcDbEntity
  8
0
  6
Continuous
 62
     7
370
    25
100
AcDbLine
 10
6277.8618972091
 20
5377.5440751219
 30
0.0
 11
6261.909366337
 21
5386.0710690618
 31
0.0
  0
LINE
  5
8D
330
1F
100
AcDbEntity
  8
0
  6
Continuous
 62
     7
370
    25
100
AcDbLine
 10
6254.5187553361
 20
5386.1994545927
 30
0.0
 11
6254.5187553361
 21
5387.9701659521
 31
0.0
  0
LINE
  5
8E
330
1F
100
AcDbEntity
  8
0
  6
Continuous
 62
     7
370
    25
100
AcDbLine
 10
6217.5187553361
 20
5386.1994545927
 30
0.0
 11
6254.5187553361
 21
5386.1994545927
 31
0.0
  0
LINE
  5
8F
330
1F
100
AcDbEntity
  8
0
  6
Continuous
 62
     7
370
    25
100
AcDbLine
 10
6217.5187553361
 20
5387.9701659521
 30
0.0
 11
6217.5187553361
 21
5386.1994545927
 31
0.0
  0
LWPOLYLINE
  5
90
330
1F
100
AcDbEntity
  8
0
  6
Continuous
 62
     7
370
    25
100
AcDbPolyline
 90
       97
 70
   128
 43
0.0
 10
6376.0365001803
 20
5428.3840691067
 10
6374.7058990043
 20
5429.703860763
 10
6365.0465262187
 20
5438.4624404073
 10
6354.3562835815
 20
5446.7482655783
 10
6346.4440439248
 20
5452.1007781716
 10
6338.0397714396
 20
5457.166153139
 10
6329.1626426241
 20
5461.9017348689
 10
6319.4036254844
 20
5466.452872609
 10
6309.1507627314
 20
5470.5661682636
 10
6298.1814152274
 20
5474.2701409108
 10
6286.767753029
 20
5477.4164416245
 10
6276.8311074052
 20
5479.5993394452
 10
6266.6617094031
 20
5481.3222764483
 10
6256.0606674981
 20
5482.5831106925
 10
6245.3313974764
 20
5483.3173413226
 10
6232.6701478696
 20
5483.4875397753
 10
6220.040133269
 20
5482.911426135
 10
6207.0823826126
 20
5481.5304955553
 10
6194.39725777
 20
5479.3869816089
 10
6182.5637743974
 20
5476.6462643292
 10
6171.1504767238
 20
5473.2899712772
 10
6159.9138132007
 20
5469.2497942179
 10
6149.2260368433
 20
5464.6731534468
 10
6137.214970058
 20
5458.5787468876
 10
6126.0541282158
 20
5451.8918449297
 10
6115.5031328812
 20
5444.5056760324
 10
6105.8503364736
 20
5436.6617855868
 10
6096.2737821782
 20
5427.6036918224
 10
6087.7333649628
 20
5418.1407827226
 10
6080.2256482391
 20
5408.3604172434
 10
6073.4823424306
 20
5397.9046558642
 10
6067.7958900023
 20
5387.1990854994
 10
6063.1606998653
 20
5376.3112747949
 10
6060.0295810528
 20
5366.919001315
 10
6057.6447213407
 20
5357.4372996948
 10
6056.0087207418
 20
5347.9006752606
 10
6055.1119051359
 20
5338.1119985561
 10
6055.0055841729
 20
5328.3017929677
 10
6055.6995152678
 20
5318.5071485031
 10
6057.1329272756
 20
5309.1249343723
 10
6059.332572393
 20
5299.793797752
 10
6062.3116147466
 20
5290.5525966584
 10
6066.2036832551
 20
5281.179474851
 10
6070.9627329135
 20
5271.9528512153
 10
6076.6020197845
 20
5262.9280078178
 10
6081.472299035
 20
5256.2530066496
 10
6086.873002145
 20
5249.7313119033
 10
6092.8045442428
 20
5243.3945316679
 10
6099.4567398508
 20
5237.10463975
 10
6106.6869710801
 20
5231.0565670191
 10
6114.482556458
 20
5225.2929306638
 10
6122.2394599142
 20
5220.2161617669
 10
6130.4782731899
 20
5215.4393263548
 10
6139.3304820562
 20
5210.9246567797
 10
6148.6463683634
 20
5206.7831361645
 10
6159.0769212127
 20
5202.8103561351
 10
6169.9631788519
 20
5199.3379731461
 10
6181.5444579522
 20
5196.3369338196
 10
6193.4837902953
 20
5193.9335241592
 10
6206.0466561128
 20
5192.1190982938
 10
6218.8167424374
 20
5190.9879989871
 10
6232.1172174103
 20
5190.5547110024
 10
6245.4267125542
 20
5190.8668635939
 10
6255.1976033744
 20
5191.5744855108
 10
6264.8830705511
 20
5192.6785211445
 10
6274.4228691704
 20
5194.1665055037
 10
6284.15433593
 20
5196.1105401997
 10
6293.6722834152
 20
5198.4428955321
 10
6302.923847443
 20
5201.1402458551
 10
6315.7419214887
 20
5205.6351975467
 10
6327.8967982886
 20
5210.7890084975
 10
6339.6461198512
 20
5216.7120834843
 10
6350.5947010358
 20
5223.1973172375
 10
6358.5922959778
 20
5228.6294389315
 10
6366.0790676674
 20
5234.3416845362
 10
6373.0387960085
 20
5240.2969716885
 10
6379.6446777113
 20
5246.6477326881
 10
6385.7037772307
 20
5253.2102521287
 10
6391.2110120822
 20
5259.9511067652
 10
6397.9294113229
 20
5269.53094538
 10
6403.6299814578
 20
5279.3725867155
 10
6408.3175650139
 20
5289.4065950526
 10
6412.1281086807
 20
5299.9717334652
 10
6414.8950561265
 20
5310.6710633949
 10
6416.6298059454
 20
5321.4438867563
 10
6417.3101828345
 20
5330.8252179542
 10
6417.2336522417
 20
5340.2217898958
 10
6416.4059500604
 20
5349.5987837349
 10
6414.7848414485
 20
5359.1543202493
 10
6412.3814618262
 20
5368.6527934129
 10
6409.198419786
 20
5378.0565712898
 10
6405.5139902256
 20
5386.7428505659
 10
6401.1378914578
 20
5395.3109889561
 10
6396.0698809116
 20
5403.7255318487
 10
6390.1438229885
 20
5412.1715933211
 10
6383.4657507871
 20
5420.4075632198
 10
6376.0365001803
 20
5428.3840691067
  0
ARC
  5
91
330
1F
100
AcDbEntity
  8
0
  6
Continuous
 62
     7
370
    25
100
AcDbCircle
 10
6316.8004519584
 20
5331.3331123395
 30
0.0
 40
102.5346735699673
100
AcDbArc
 50
344.0448428157
 51
4.0033307304
  0
ARC
  5
92
330
1F
100
AcDbEntity
  8
0
  6
Continuous
 62
     7
370
    25
100
AcDbCircle
 10
6154.9565913305
 20
5328.2925659872
 30
0.0
 40
101.9771224579121
100
AcDbArc
 50
176.1422245417
 51
195.7855540456
  0
LWPOLYLINE
  5
93
330
1F
100
AcDbEntity
  8
0
  6
Continuous
 62
     7
370
    25
100
AcDbPolyline
 90
       59
 70
   128
 43
0.0
 10
6323.1297147133
 20
4753.6994545927
 10
6331.5010426802
 20
4754.3117009835
 10
6339.1957214654
 20
4754.9770094915
 10
6346.3527246298
 20
4755.7123651407
 10
6352.6890031375
 20
4756.4932673369
 10
6358.014195493
 20
4757.289981652
 10
6362.4913792004
 20
4758.1185911238
 10
6366.1798253349
 20
4758.9980801373
 10
6368.920461286
 20
4759.8989173306
 10
6370.6730091963
 20
4760.7996762024
 10
6371.4843369022
 20
4761.7087545286
 10
6371.3309153694
 20
4762.6457651272
 10
6370.1827570469
 20
4763.5784625933
 10
6368.0834501257
 20
4764.4872135024
 10
6365.0416852312
 20
4765.3791889774
 10
6360.9470669176
 20
4766.272853029
 10
6355.9049105059
 20
4767.1357843017
 10
6350.1016965413
 20
4767.9419208316
 10
6343.4664181982
 20
4768.7069785199
 10
6335.806624194
 20
4769.4458245376
 10
6327.3633326652
 20
4770.1293482038
 10
6318.578925108
 20
4770.7277510739
 10
6309.1862452629
 20
4771.2654539952
 10
6298.9351610139
 20
4771.7512933724
 10
6288.1815013175
 20
4772.1638358047
 10
6277.6150520243
 20
4772.4830349959
 10
6266.7447643698
 20
4772.7305398109
 10
6255.3047639871
 20
4772.9080270847
 10
6243.7115243021
 20
4773.0053924602
 10
6232.6745363934
 20
4773.0225277665
 10
6221.6581035301
 20
4772.9666977691
 10
6210.4188350835
 20
4772.8330968138
 10
6199.3667059941
 20
4772.6236550992
 10
6188.9788080675
 20
4772.3516892794
 10
6178.9095193691
 20
4772.0131380516
 10
6168.9581054813
 20
4771.5980457298
 10
6159.4815485679
 20
4771.1186262198
 10
6150.6778717204
 20
4770.5871877471
 10
6142.4505610447
 20
4770.0009703668
 10
6134.6514472959
 20
4769.3458012273
 10
6127.5621924814
 20
4768.6421219993
 10
6121.2343909619
 20
4767.8956567384
 10
6115.6952717288
 20
4767.1110657959
 10
6110.8613674459
 20
4766.2706310029
 10
6106.9233586561
 20
4765.4015263886
 10
6103.9126379409
 20
4764.5113547017
 10
6101.8365400132
 20
4763.604683331
 10
6100.6932042124
 20
4762.6614864031
 10
6100.5604021396
 20
4761.7140389217
 10
6101.4210537839
 20
4760.784715286
 10
6103.2579477777
 20
4759.8642744179
 10
6106.1622992311
 20
4758.9328402394
 10
6110.0739654989
 20
4758.0246875004
 10
6114.7795091944
 20
4757.1777911906
 10
6120.3701950211
 20
4756.3651465156
 10
6127.0216067738
 20
4755.5702314938
 10
6134.5288504667
 20
4754.8243652953
 10
6141.4331685692
 20
4754.2423330986
 10
6148.9077959589
 20
4753.6994545927
  0
LWPOLYLINE
  5
94
330
1F
100
AcDbEntity
  8
0
  6
Continuous
 62
     7
370
    25
100
AcDbPolyline
 90
       57
 70
   128
 43
0.0
 10
6396.9483720904
 20
5391.4776063251
 10
6400.7846004853
 20
5383.5271821152
 10
6404.0250581593
 20
5375.4757875336
 10
6407.5244701839
 20
5364.2193614269
 10
6409.8999830233
 20
5352.8180358599
 10
6411.1432208633
 20
5341.3371083678
 10
6411.2458078896
 20
5329.8418764859
 10
6410.199368288
 20
5318.3976377496
 10
6408.4239653418
 20
5308.855252618
 10
6405.8138527324
 20
5299.3629987515
 10
6402.3607327008
 20
5289.968790605
 10
6398.0563074879
 20
5280.7205426336
 10
6392.8922793347
 20
5271.6661692923
 10
6386.6387740031
 20
5262.5550186574
 10
6379.4155912302
 20
5253.6968766017
 10
6371.2314323276
 20
5245.1694821275
 10
6362.0949986072
 20
5237.0505742371
 10
6353.5965574124
 20
5230.5339041271
 10
6344.3844788641
 20
5224.371688612
 10
6334.4991080673
 20
5218.6279266346
 10
6323.9807901271
 20
5213.3666171375
 10
6314.0155666674
 20
5209.0976904719
 10
6303.5489847842
 20
5205.2748086647
 10
6292.6555545582
 20
5201.9457922757
 10
6281.4097860703
 20
5199.1584618645
 10
6269.9795284962
 20
5196.9710438571
 10
6258.2599106138
 20
5195.3598886767
 10
6246.3688621724
 20
5194.3492823626
 10
6234.4243129215
 20
5193.9635109538
 10
6223.1515366509
 20
5194.1847602376
 10
6211.9252988582
 20
5194.9650614395
 10
6200.8530504109
 20
5196.294490774
 10
6189.457511233
 20
5198.2797305307
 10
6178.3134723914
 20
5200.8497391209
 10
6167.5093268213
 20
5203.9612815414
 10
6157.1334674578
 20
5207.5711227887
 10
6147.2742872362
 20
5211.6360278597
 10
6135.7589800312
 20
5217.2841824151
 10
6125.0267195652
 20
5223.5402373943
 10
6115.1326280228
 20
5230.3125843152
 10
6106.1318275885
 20
5237.5096146958
 10
6098.0049137375
 20
5245.0953183834
 10
6090.7133547269
 20
5253.0366058227
 10
6084.2514900049
 20
5261.2739915819
 10
6078.6136590194
 20
5269.7479902292
 10
6073.7942012186
 20
5278.3991163327
 10
6069.7874560505
 20
5287.1678844606
 10
6066.0225256798
 20
5297.7756153456
 10
6063.3139037331
 20
5308.5344269228
 10
6061.6419950515
 20
5319.3861370224
 10
6060.9872044763
 20
5330.2725634743
 10
6061.3299368486
 20
5341.1355241087
 10
6062.5579399416
 20
5351.3762261908
 10
6064.6617556846
 20
5361.5848212372
 10
6067.6395343349
 20
5371.716453098
 10
6071.4894261497
 20
5381.7262656234
 10
6076.2095813862
 20
5391.5694026635
  0
LWPOLYLINE
  5
95
330
1F
100
AcDbEntity
  8
0
  6
Continuous
 62
     7
370
    25
100
AcDbPolyline
 90
       37
 70
   128
 43
0.0
 10
6076.2095813862
 20
5391.5694026635
 10
6081.798071518
 20
5401.0816513167
 10
6088.2829120767
 20
5410.4069118484
 10
6095.6680042676
 20
5419.4776760144
 10
6103.9572492959
 20
5428.2264355705
 10
6113.1545483669
 20
5436.5856822726
 10
6120.8781561535
 20
5442.7243098516
 10
6129.2019736476
 20
5448.5894027687
 10
6138.10598143
 20
5454.1230573525
 10
6147.5701600814
 20
5459.267369932
 10
6157.5744901825
 20
5463.9644368359
 10
6166.570255761
 20
5467.5924543664
 10
6175.9739381365
 20
5470.8355797731
 10
6185.7269801684
 20
5473.6486790887
 10
6195.770824716
 20
5475.9866183458
 10
6205.7935180427
 20
5477.7692761646
 10
6216.0481146907
 20
5479.0551095735
 10
6226.4346896559
 20
5479.8245862572
 10
6236.8533179344
 20
5480.0581739007
 10
6246.1272508758
 20
5479.808672135
 10
6255.346736691
 20
5479.1386058619
 10
6266.3984587236
 20
5477.7668911652
 10
6277.2583961696
 20
5475.8095991402
 10
6287.8305638504
 20
5473.3112962991
 10
6298.0189765871
 20
5470.3165491538
 10
6308.3022684932
 20
5466.662559111
 10
6318.1519935699
 20
5462.5322770023
 10
6327.5320524391
 20
5457.9801121509
 10
6336.4063457227
 20
5453.0604738799
 10
6344.7387740426
 20
5447.8277715127
 10
6354.3674898632
 20
5440.9264454629
 10
6363.2349584325
 20
5433.6203747958
 10
6371.333113099
 20
5425.9752574804
 10
6378.6538872112
 20
5418.0567914858
 10
6385.5723460563
 20
5409.4227329499
 10
6391.6708276556
 20
5400.5458496706
 10
6396.9483720904
 20
5391.4776063251
  0
LWPOLYLINE
  5
96
330
1F
100
AcDbEntity
  8
0
  6
Continuous
 62
     7
370
    25
100
AcDbPolyline
 90
        3
 70
   128
 43
0.0
 10
6077.9886418112
 20
5390.1859061253
 10
6077.98942325
 20
5390.1833312357
 10
6077.9899500139
 20
5390.1792804122
  0
ARC
  5
97
330
1F
100
AcDbEntity
  8
0
  6
Continuous
 62
     7
370
    25
100
AcDbCircle
 10
6161.810101841
 20
5328.5595391244
 30
0.0
 40
98.8235781342298
100
AcDbArc
 50
177.1957641885
 51
194.9665662652
  0
ARC
  5
98
330
1F
100
AcDbEntity
  8
0
  6
Continuous
 62
     7
370
    25
100
AcDbCircle
 10
6308.7285288239
 20
5331.5465721335
 30
0.0
 40
100.593045748094
100
AcDbArc
 50
344.3320855674
 51
2.8418499242
  0
ARC
  5
99
330
1F
100
AcDbEntity
  8
0
  6
Continuous
 62
     7
370
    25
100
AcDbCircle
 10
6395.1799517764
 20
5390.0696268108
 30
0.0
 40
0.0216432871186763
100
AcDbArc
 50
159.5847224055
 51
179.2464930428
  0
ARC
  5
9A
330
1F
100
AcDbEntity
  8
0
  6
Continuous
 62
     7
370
    25
100
AcDbCircle
 10
6397.41125098
 20
5389.0438631683
 30
0.0
 40
2.477370101436723
100
AcDbArc
 50
100.7685935544
 51
155.3483100572
  0
ARC
  5
9B
330
1F
100
AcDbEntity
  8
0
  6
Continuous
 62
     7
370
    25
100
AcDbCircle
 10
6075.7289136497
 20
5389.115694839
 30
0.0
 40
2.500344688476466
100
AcDbArc
 50
25.3423185484
 51
78.9164286057
  0
ARC
  5
9C
330
1F
100
AcDbEntity
  8
0
  6
Continuous
 62
     7
370
    25
100
AcDbCircle
 10
6185.0835746416
 20
5284.2913547591
 30
0.0
 40
116.6392605508422
100
AcDbArc
 50
152.8997642188
 51
175.2748589325
  0
ARC
  5
9D
330
1F
100
AcDbEntity
  8
0
  6
Continuous
 62
     7
370
    25
100
AcDbCircle
 10
6296.0955971754
 20
5289.0491337477
 30
0.0
 40
107.7214945906003
100
AcDbArc
 50
4.3396980965
 51
26.6855663362
  0
LINE
  5
9E
330
1F
100
AcDbEntity
  8
0
  6
Continuous
 62
     7
370
    25
100
AcDbLine
 10
6392.3430883118
 20
5337.4262031794
 30
0.0
 11
6395.1583103609
 21
5390.0699114373
 31
0.0
  0
LINE
  5
9F
330
1F
100
AcDbEntity
  8
0
  6
Continuous
 62
     7
370
    25
100
AcDbLine
 10
6077.9899500139
 20
5390.1792804122
 30
0.0
 11
6081.2500300363
 21
5337.4262031785
 31
0.0
  0
LWPOLYLINE
  5
A0
330
1F
100
AcDbEntity
  8
0
  6
Continuous
 62
     7
370
    25
100
AcDbPolyline
 90
        4
 70
   128
 43
0.0
 10
6081.2500300363
 20
5337.4262031785
 10
6098.4896663642
 20
5293.4208665065
 10
6115.7300905531
 20
5250.2319704723
 10
6126.6934074859
 20
5223.3048251517
  0
LWPOLYLINE
  5
A1
330
1F
100
AcDbEntity
  8
0
  6
Continuous
 62
     7
370
    25
100
AcDbPolyline
 90
        4
 70
   128
 43
0.0
 10
6392.3430883118
 20
5337.4262031794
 10
6374.8535758987
 20
5293.2671234731
 10
6357.3632730697
 20
5249.9868174795
 10
6348.1318115677
 20
5227.6225393614
  0
LINE
  5
A2
330
1F
100
AcDbEntity
  8
0
  6
Continuous
 62
     7
370
    25
100
AcDbLine
 10
6323.1297198395
 20
4753.6994545927
 30
0.0
 11
6306.646789739
 21
4753.6994545927
 31
0.0
  0
ELLIPSE
  5
A3
330
1F
100
AcDbEntity
  8
0
  6
Continuous
 62
     7
370
    25
100
AcDbEllipse
 10
6236.0187553361
 20
4761.8684250431
 30
0.0
 11
125.0
 21
0.0
 31
0.0
210
0.0
220
0.0
230
1.0
 40
0.0792071273
 41
5.312851655532606
 42
10.39511161241647
  0
LINE
  5
A4
330
1F
100
AcDbEntity
  8
0
  6
Continuous
 62
     7
370
    25
100
AcDbLine
 10
6165.3907209332
 20
4753.6994545927
 30
0.0
 11
6148.9077926504
 21
4753.6994545927
 31
0.0
  0
LINE
  5
A5
330
1F
100
AcDbEntity
  8
0
  6
Continuous
 62
     7
370
    25
100
AcDbLine
 10
6165.3907209332
 20
4753.6994545927
 30
0.0
 11
6306.646789739
 21
4753.6994545927
 31
0.0
  0
LINE
  5
A6
330
1F
100
AcDbEntity
  8
0
  6
Continuous
 62
     7
370
    25
100
AcDbLine
 10
6395.1596679255
 20
5390.0771764646
 30
0.0
 11
6395.1587883679
 21
5390.0788500089
 31
0.0
  0
LWPOLYLINE
  5
A7
330
1F
100
AcDbEntity
  8
0
  6
Continuous
 62
     7
370
    25
100
AcDbPolyline
 90
       39
 70
   128
 43
0.0
 10
6395.1587883679
 20
5390.0788500089
 10
6395.1587698107
 20
5390.0788857754
 10
6389.9755823817
 20
5399.2205207762
 10
6383.9886317422
 20
5408.1753815053
 10
6377.1956629849
 20
5416.8886770981
 10
6370.0008944315
 20
5424.882166464
 10
6362.0339758487
 20
5432.5979537394
 10
6353.2996495023
 20
5439.9691872953
 10
6343.8026576579
 20
5446.9290155026
 10
6335.5737842076
 20
5452.2032190881
 10
6326.7997618025
 20
5457.1600643166
 10
6317.516535488
 20
5461.7450883138
 10
6307.7600503099
 20
5465.9038282052
 10
6297.5662513134
 20
5469.5818211164
 10
6287.4620373481
 20
5472.5947525069
 10
6276.9708929364
 20
5475.1080299195
 10
6266.189545289
 20
5477.0769362197
 10
6255.2147216168
 20
5478.4567542729
 10
6246.0587837032
 20
5479.1307664341
 10
6236.8479110777
 20
5479.3819142446
 10
6226.5002711945
 20
5479.1473701219
 10
6216.1849364427
 20
5478.373986512
 10
6206.0026652745
 20
5477.0813817185
 10
6196.0542161425
 20
5475.2891740446
 10
6186.0868465835
 20
5472.9377602843
 10
6176.412791561
 20
5470.1077883528
 10
6167.0909945319
 20
5466.8445100577
 10
6158.1803989535
 20
5463.1931772065
 10
6148.2776834029
 20
5458.4630222956
 10
6138.9194587878
 20
5453.280187478
 10
6130.1247458211
 20
5447.7028983324
 10
6121.9125652154
 20
5441.7893804374
 10
6114.3019376837
 20
5435.5978593718
 10
6106.5663358581
 20
5428.4703439644
 10
6099.4977968521
 20
5421.0700051784
 10
6091.2654673544
 20
5411.084101909
 10
6084.0997490819
 20
5400.7613653004
 10
6077.9894654131
 20
5390.1874602962
 10
6077.9894467138
 20
5390.1874245768
  0
LINE
  5
A8
330
1F
100
AcDbEntity
  8
0
  6
Continuous
 62
     7
370
    25
100
AcDbLine
 10
6077.9894467138
 20
5390.1874245768
 30
0.0
 11
6077.9886418112
 21
5390.1859061253
 31
0.0
  0
LWPOLYLINE
  5
A9
330
1F
100
AcDbEntity
  8
0
  6
Continuous
 62
     7
370
    25
100
AcDbPolyline
 90
       33
 70
   128
 43
0.0
 10
6392.3430883118
 20
5337.4262031794
 10
6386.4574949004
 20
5343.8595849197
 10
6379.8772785263
 20
5350.0297025636
 10
6372.6340292678
 20
5355.9090743172
 10
6364.7606314534
 20
5361.469090234
 10
6356.2940295824
 20
5366.6854310694
 10
6347.2732111848
 20
5371.5324301902
 10
6337.7401163007
 20
5375.9890976588
 10
6327.7390048092
 20
5380.0332802834
 10
6317.3160352809
 20
5383.6477063063
 10
6306.5199199469
 20
5386.8141464045
 10
6295.4001807293
 20
5389.5193669959
 10
6284.0090797357
 20
5391.7494003568
 10
6272.3985847447
 20
5393.4952962581
 10
6260.6235394915
 20
5394.7476073527
 10
6248.7373948087
 20
5395.5018325838
 10
6236.7965599803
 20
5395.7532200134
 10
6224.8549786202
 20
5395.5018011445
 10
6212.9695804541
 20
5394.7476074881
 10
6201.1938024914
 20
5393.4952025236
 10
6189.5840401654
 20
5391.7494006251
 10
6178.1922338577
 20
5389.5192127039
 10
6167.0731998809
 20
5386.8141468007
 10
6156.2764196921
 20
5383.6474943149
 10
6145.8541149179
 20
5380.0332808002
 10
6135.8523913431
 20
5375.9888318939
 10
6126.3199084161
 20
5371.5324308181
 10
6117.2985420493
 20
5366.6851164545
 10
6108.8324879981
 20
5361.4690909612
 10
6100.958616484
 20
5355.9087166837
 10
6093.7158407554
 20
5350.0297033768
 10
6087.135450775
 20
5343.8593800883
 10
6081.2500307829
 20
5337.4262040635
  0
LINE
  5
AA
330
1F
100
AcDbEntity
  8
0
  6
Continuous
 62
     7
370
    25
100
AcDbLine
 10
6254.5187553361
 20
5387.3548727788
 30
0.0
 11
6254.5187553361
 21
5387.9701659521
 31
0.0
  0
LINE
  5
AB
330
1F
100
AcDbEntity
  8
0
  6
Continuous
 62
     7
370
    25
100
AcDbLine
 10
6252.5187553361
 20
5387.3548727788
 30
0.0
 11
6254.5187553361
 21
5387.3548727788
 31
0.0
  0
LINE
  5
AC
330
1F
100
AcDbEntity
  8
0
  6
Continuous
 62
     7
370
    25
100
AcDbLine
 10
6252.5187553361
 20
5387.9713547919
 30
0.0
 11
6252.5187553361
 21
5387.3548727788
 31
0.0
  0
LINE
  5
AD
330
1F
100
AcDbEntity
  8
0
  6
Continuous
 62
     7
370
    25
100
AcDbLine
 10
6219.5187553361
 20
5387.3548727788
 30
0.0
 11
6219.5187553361
 21
5387.9713547919
 31
0.0
  0
LINE
  5
AE
330
1F
100
AcDbEntity
  8
0
  6
Continuous
 62
     7
370
    25
100
AcDbLine
 10
6217.5187553361
 20
5387.3548727788
 30
0.0
 11
6219.5187553361
 21
5387.3548727788
 31
0.0
  0
LINE
  5
AF
330
1F
100
AcDbEntity
  8
0
  6
Continuous
 62
     7
370
    25
100
AcDbLine
 10
6217.5187553361
 20
5387.9701659521
 30
0.0
 11
6217.5187553361
 21
5387.3548727788
 31
0.0
  0
LWPOLYLINE
  5
B0
330
1F
100
AcDbEntity
  8
0
  6
Continuous
 62
     8
370
    25
100
AcDbPolyline
 90
       41
 70
   128
 43
0.0
 10
6415.385195669
 20
5303.1478752176
 10
6414.1964850017
 20
5298.5355224915
 10
6410.4549473071
 20
5288.0888511572
 10
6405.6820869468
 20
5277.8093826657
 10
6399.8694349323
 20
5267.7621419366
 10
6393.0085222749
 20
5258.0121538896
 10
6386.3724954352
 20
5250.0343997984
 10
6378.9349356763
 20
5242.2960486918
 10
6370.7143877414
 20
5234.8581302617
 10
6361.7293963735
 20
5227.7816741997
 10
6351.9985063158
 20
5221.1277101978
 10
6341.095752661
 20
5214.7117744541
 10
6329.3670512514
 20
5208.8252223371
 10
6316.9026119358
 20
5203.5519886295
 10
6303.792644563
 20
5198.9760081139
 10
6292.7610734288
 20
5195.8364247955
 10
6281.3252397519
 20
5193.2037262947
 10
6269.5842737915
 20
5191.1086790435
 10
6257.6373058068
 20
5189.5820494743
 10
6245.5834660569
 20
5188.6546040191
 10
6232.3429788282
 20
5188.3479341955
 10
6219.0578405705
 20
5188.7674311918
 10
6205.8830790388
 20
5189.9019543785
 10
6192.9737219884
 20
5191.7403631261
 10
6181.0568982537
 20
5194.1219776465
 10
6169.4553421659
 20
5197.0982403132
 10
6158.2641285692
 20
5200.6245029215
 10
6147.5783323076
 20
5204.6561172666
 10
6138.241672014
 20
5208.7771690771
 10
6129.3471609253
 20
5213.2765929521
 10
6120.9293711418
 20
5218.1139436908
 10
6113.0228747638
 20
5223.2487760924
 10
6103.78475826
 20
5230.1148953183
 10
6095.3301128671
 20
5237.3887062043
 10
6087.6689578992
 20
5245.0063253341
 10
6080.8113126705
 20
5252.9038692914
 10
6074.7671964951
 20
5261.01745466
 10
6068.15013428
 20
5271.7278025563
 10
6062.759242784
 20
5282.7353763109
 10
6058.5711392196
 20
5293.9594722453
 10
6056.8253715755
 20
5300.5509507821
  0
ARC
  5
B1
330
1F
100
AcDbEntity
  8
0
  6
Continuous
 62
     8
370
    25
100
AcDbCircle
 10
6187.3218234583
 20
5331.1766272909
 30
0.0
 40
124.2367563412821
100
AcDbArc
 50
151.6457890412
 51
178.9771736029
  0
LWPOLYLINE
  5
B2
330
1F
100
AcDbEntity
  8
0
  6
Continuous
 62
     8
370
    25
100
AcDbPolyline
 90
        9
 70
   128
 43
0.0
 10
6409.1978642494
 20
5336.5339052937
 10
6409.1706994842
 20
5339.9767881396
 10
6407.950035024
 20
5351.4457506458
 10
6405.6075762734
 20
5362.8360191128
 10
6402.1515909723
 20
5374.0829573377
 10
6398.8590169006
 20
5382.3344444151
 10
6395.1583287771
 20
5390.0698759112
 10
6395.1583103609
 20
5390.0699114373
 10
6395.1583103609
 20
5390.0699114373
  0
CIRCLE
  5
B3
330
1F
100
AcDbEntity
  8
0
  6
Continuous
 62
     7
370
    25
100
AcDbCircle
 10
6694.6178090822
 20
5098.6994545927
 30
0.0
 40
13.9999999999994
  0
LWPOLYLINE
  5
B4
330
1F
100
AcDbEntity
  8
0
  6
Continuous
 62
     7
370
    25
100
AcDbPolyline
 90
        3
 70
   128
 43
0.0
 10
6653.2729159278
 20
4783.732224565
 10
6652.3608381951
 20
4771.5033153955
 10
6650.9917871029
 20
4753.6994545927
  0
LWPOLYLINE
  5
B5
330
1F
100
AcDbEntity
  8
0
  6
Continuous
 62
     7
370
    25
100
AcDbPolyline
 90
        4
 70
   128
 43
0.0
 10
6685.7269984043
 20
5481.9231610055
 10
6685.2866959083
 20
5467.5337969885
 10
6684.7257911072
 20
5449.4910196098
 10
6684.7003638708
 20
5448.6853382162
  0
LWPOLYLINE
  5
B6
330
1F
100
AcDbEntity
  8
0
  6
Continuous
 62
     7
370
    25
100
AcDbPolyline
 90
       45
 70
   128
 43
0.0
 10
6926.8383090113
 20
4772.9924183789
 10
6931.5219152339
 20
4788.3381870941
 10
6936.2914979194
 20
4803.8596748033
 10
6940.7193929536
 20
4818.1825768182
 10
6944.7984043835
 20
4831.3068931387
 10
6948.5222674978
 20
4843.2326237649
 10
6951.4273518448
 20
4852.5007022184
 10
6954.0645550362
 20
4860.8881871005
 10
6956.4312952298
 20
4868.3950784112
 10
6958.5253401686
 20
4875.0213761506
 10
6960.3447799991
 20
4880.7670803187
 10
6961.8880033201
 20
4885.6321909154
 10
6963.1981961916
 20
4889.756769427
 10
6965.1527609149
 20
4895.8999822572
 10
6967.1959148299
 20
4902.3092041959
 10
6969.32809229
 20
4908.9844352432
 10
6971.5497323854
 20
4915.925675399
 10
6973.8202766043
 20
4923.0052158305
 10
6974.8307161518
 20
4926.1511384451
 10
6975.5430985524
 20
4928.3673975143
 10
6975.9568591603
 20
4929.6539930382
 10
6976.2432904251
 20
4930.5443836836
 10
6976.6490358981
 20
4931.8052907896
 10
6977.1761687058
 20
4933.4427628879
 10
6977.8248535648
 20
4935.4567999783
 10
6979.0822550353
 20
4939.3575983951
 10
6980.6378542828
 20
4944.1777449375
 10
6982.4927899249
 20
4949.9172396054
 10
6984.6483873244
 20
4956.5760823988
 10
6987.1061427739
 20
4964.1542733178
 10
6989.8677051876
 20
4972.6518123623
 10
6992.9348553258
 20
4982.0686995324
 10
6996.2937392383
 20
4992.3567704137
 10
7003.1090699501
 20
5013.156349888
 10
7009.5966950819
 20
5032.8667616573
 10
7015.7507394895
 20
5051.4880057217
 10
7021.5660698964
 20
5069.0200820811
 10
7027.0381737339
 20
5085.4629907355
 10
7032.1630481065
 20
5100.8167316849
 10
7036.9370987921
 20
5115.0813049294
 10
7042.1885379037
 20
5130.7321559535
 10
7047.4797939184
 20
5146.462262492
 10
7052.9605129556
 20
5162.7153655161
 10
7058.6316829835
 20
5179.4914650257
 10
7061.6338660556
 20
5188.3502984139
  0
ARC
  5
B7
330
1F
100
AcDbEntity
  8
0
  6
Continuous
 62
     7
370
    25
100
AcDbCircle
 10
6687.7304710805
 20
5481.9443696745
 30
0.0
 40
2.000000951504037
100
AcDbArc
 50
51.7086795425
 51
180.6634252703
  0
ARC
  5
B8
330
1F
100
AcDbEntity
  8
0
  6
Continuous
 62
     7
370
    25
100
AcDbCircle
 10
7059.7340499051
 20
5188.9800593965
 30
0.0
 40
1.999999796166556
100
AcDbArc
 50
341.4737340239
 51
51.7793881141
  0
LINE
  5
B9
330
1F
100
AcDbEntity
  8
0
  6
Continuous
 62
     7
370
    25
100
AcDbLine
 10
6684.7594988754
 20
5448.6994545927
 30
0.0
 11
6634.6178090822
 21
5448.6994545927
 31
0.0
  0
LINE
  5
BA
330
1F
100
AcDbEntity
  8
0
  6
Continuous
 62
     7
370
    25
100
AcDbLine
 10
6634.6178090822
 20
4783.6994545927
 30
0.0
 11
6653.2849474601
 21
4783.6994545927
 31
0.0
  0
CIRCLE
  5
BB
330
1F
100
AcDbEntity
  8
0
  6
Continuous
 62
     7
370
    25
100
AcDbCircle
 10
6694.6178090822
 20
5098.6994545927
 30
0.0
 40
13.72881355932254
  0
LWPOLYLINE
  5
BC
330
1F
100
AcDbEntity
  8
0
  6
Continuous
 62
     7
370
    25
100
AcDbPolyline
 90
       11
 70
   128
 43
0.0
 10
6653.2849474601
 20
4783.7133645031
 10
6653.27771477
 20
4783.7002643552
 10
6653.4650460801
 20
4783.9332845768
 10
6653.9314402221
 20
4784.5752726173
 10
6654.695184499
 20
4785.6560315376
 10
6655.7286580223
 20
4787.1458745912
 10
6656.9631511877
 20
4788.9555716912
 10
6658.4064121222
 20
4791.1100729135
 10
6660.0729523119
 20
4793.6502160694
 10
6661.9035340167
 20
4796.5099053115
 10
6663.2720541603
 20
4798.6994545927
  0
LWPOLYLINE
  5
BD
330
1F
100
AcDbEntity
  8
0
  6
Continuous
 62
     7
370
    25
100
AcDbPolyline
 90
        9
 70
   128
 43
0.0
 10
6742.4150617
 20
4808.5412098129
 10
6742.0914019141
 20
4807.0942926028
 10
6741.105148724
 20
4805.4749785024
 10
6739.9270262924
 20
4804.2800358374
 10
6738.6038914162
 20
4803.2783744698
 10
6735.3929712995
 20
4801.5123328378
 10
6732.0178264702
 20
4800.249978562
 10
6727.0987503094
 20
4799.0938131276
 10
6722.195730783
 20
4798.6994545927
  0
LWPOLYLINE
  5
BE
330
1F
100
AcDbEntity
  8
0
  6
Continuous
 62
     7
370
    25
100
AcDbPolyline
 90
        8
 70
   128
 43
0.0
 10
6742.4150617
 20
4808.5412098129
 10
6745.260800915
 20
4875.6250537644
 10
6747.5222042198
 20
4942.7312869266
 10
6749.2605432817
 20
5009.8700702109
 10
6750.5511797618
 20
5077.0191182372
 10
6751.6742473814
 20
5163.4307726032
 10
6752.3229426793
 20
5249.8475357445
 10
6752.6751597997
 20
5422.6990333128
  0
ARC
  5
BF
330
1F
100
AcDbEntity
  8
0
  6
Continuous
 62
     7
370
    25
100
AcDbCircle
 10
6742.0297723141
 20
5422.0591976283
 30
0.0
 40
10.66459865260143
100
AcDbArc
 50
3.4395962156
 51
79.7205779063
  0
LWPOLYLINE
  5
C0
330
1F
100
AcDbEntity
  8
0
  6
Continuous
 62
     7
370
    25
100
AcDbPolyline
 90
       14
 70
   128
 43
0.0
 10
6743.9328575631
 20
5432.5526208522
 10
6734.6178090822
 20
5434.7968505729
 10
6726.7494491714
 20
5436.7818424624
 10
6719.4187920317
 20
5438.7037347595
 10
6712.6811931813
 20
5440.5311360583
 10
6706.3515933421
 20
5442.3004162828
 10
6700.740728378
 20
5443.9106785856
 10
6695.9088033199
 20
5445.328212704
 10
6692.5140713495
 20
5446.3401465675
 10
6689.7039160889
 20
5447.1873329993
 10
6687.5039126321
 20
5447.8556158588
 10
6685.8837786118
 20
5448.3482832098
 10
6684.9491297088
 20
5448.6298433836
 10
6684.7594988754
 20
5448.6813083463
  0
LINE
  5
C1
330
1F
100
AcDbEntity
  8
0
  6
Continuous
 62
     7
370
    25
100
AcDbLine
 10
6682.8574503096
 20
4753.6994545927
 30
0.0
 11
6650.9917353771
 21
4753.6994545927
 31
0.0
  0
LINE
  5
C2
330
1F
100
AcDbEntity
  8
0
  6
Continuous
 62
     7
370
    25
100
AcDbLine
 10
6682.8574503096
 20
4753.6994545927
 30
0.0
 11
6926.8136929208
 21
4773.0225277665
 31
0.0
  0
LINE
  5
C3
330
1F
100
AcDbEntity
  8
0
  6
Continuous
 62
     7
370
    25
100
AcDbLine
 10
7061.5961851879
 20
5188.3630795321
 30
0.0
 11
7061.6076690435
 21
5188.3541478913
 31
0.0
  0
LINE
  5
C4
330
1F
100
AcDbEntity
  8
0
  6
Continuous
 62
     7
370
    25
100
AcDbLine
 10
6685.84136474
 20
5481.9196492059
 30
0.0
 11
6685.8492155366
 21
5481.9136113664
 31
0.0
  0
LINE
  5
C5
330
1F
100
AcDbEntity
  8
0
  6
Continuous
 62
     7
370
    25
100
AcDbLine
 10
7060.9671361764
 20
5190.5547110024
 30
0.0
 11
6689.0035341976
 21
5483.4875397753
 31
0.0
  0
LINE
  5
C6
330
1F
100
AcDbEntity
  8
0
  6
Continuous
 62
     7
370
    25
100
AcDbLine
 10
6752.6751597997
 20
5422.6990333128
 30
0.0
 11
6634.6178090822
 21
5422.6990333128
 31
0.0
  0
LINE
  5
C7
330
1F
100
AcDbEntity
  8
0
  6
Continuous
 62
     7
370
    25
100
AcDbLine
 10
6634.6178090822
 20
4808.5412098129
 30
0.0
 11
6742.4150617
 21
4808.5412098129
 31
0.0
  0
LINE
  5
C8
330
1F
100
AcDbEntity
  8
0
  6
Continuous
 62
     7
370
    25
100
AcDbLine
 10
6634.6178090822
 20
4808.5412098129
 30
0.0
 11
6634.6178090822
 21
5422.6990333128
 31
0.0
  0
LINE
  5
C9
330
1F
100
AcDbEntity
  8
0
  6
Continuous
 62
     7
370
    25
100
AcDbLine
 10
6634.6178090822
 20
5432.5526208522
 30
0.0
 11
6743.9328575631
 21
5432.5526208522
 31
0.0
  0
LINE
  5
CA
330
1F
100
AcDbEntity
  8
0
  6
Continuous
 62
     7
370
    25
100
AcDbLine
 10
6634.6178090822
 20
5422.6990333128
 30
0.0
 11
6634.6178090822
 21
5432.5526208522
 31
0.0
  0
LINE
  5
CB
330
1F
100
AcDbEntity
  8
0
  6
Continuous
 62
     7
370
    25
100
AcDbLine
 10
6634.6178090822
 20
5432.5526208522
 30
0.0
 11
6634.6178090822
 21
5448.6994545927
 31
0.0
  0
LINE
  5
CC
330
1F
100
AcDbEntity
  8
0
  6
Continuous
 62
     7
370
    25
100
AcDbLine
 10
6722.195730783
 20
4798.6994545927
 30
0.0
 11
6634.6178090822
 21
4798.6994545927
 31
0.0
  0
LINE
  5
CD
330
1F
100
AcDbEntity
  8
0
  6
Continuous
 62
     7
370
    25
100
AcDbLine
 10
6634.6178090822
 20
4798.6994545927
 30
0.0
 11
6634.6178090822
 21
4808.5412098129
 31
0.0
  0
LINE
  5
CE
330
1F
100
AcDbEntity
  8
0
  6
Continuous
 62
     7
370
    25
100
AcDbLine
 10
6634.6178090822
 20
4783.6994545927
 30
0.0
 11
6634.6178090822
 21
4798.6994545927
 31
0.0
  0
LWPOLYLINE
  5
CF
330
1F
100
AcDbEntity
  8
0
  6
Continuous
 62
     8
370
    25
100
AcDbPolyline
 90
       51
 70
   128
 43
0.0
 10
7061.6076690435
 20
5188.3541478913
 10
7061.6259741088
 20
5188.3399110118
 10
7061.129358251
 20
5188.7282635229
 10
7059.6696282577
 20
5189.8679104393
 10
7057.2704760618
 20
5191.7403631261
 10
7054.2618311527
 20
5194.0882338022
 10
7050.5200918446
 20
5197.0081239571
 10
7045.9599357401
 20
5200.566758572
 10
7040.7200165486
 20
5204.6561172666
 10
7035.4809642992
 20
5208.7451430571
 10
7029.7761602322
 20
5213.198116014
 10
7023.5391626688
 20
5218.067045086
 10
7016.9022790146
 20
5223.2487760924
 10
7009.700261346
 20
5228.8724728066
 10
7002.1510389903
 20
5234.7680771535
 10
6994.305134739
 20
5240.8962047105
 10
6985.9586396367
 20
5247.4162209881
 10
6977.3590670188
 20
5254.134825266
 10
6968.5506632882
 20
5261.01745466
 10
6957.2930711784
 20
5269.8149971161
 10
6945.7895620559
 20
5278.8059220526
 10
6934.105723097
 20
5287.9388662102
 10
6921.9344682128
 20
5297.4537957284
 10
6909.6391113689
 20
5307.066551221
 10
6897.2740572879
 20
5316.7344159402
 10
6885.0002168858
 20
5326.3313836172
 10
6872.707065308
 20
5335.943664178
 10
6860.4391688294
 20
5345.5362083794
 10
6847.9440415336
 20
5355.3062275229
 10
6835.5212646408
 20
5365.0192543084
 10
6823.2181436987
 20
5374.6380860983
 10
6809.7745884295
 20
5385.1475166628
 10
6796.5467631117
 20
5395.4869726445
 10
6783.6117736961
 20
5405.5959382297
 10
6773.7868427935
 20
5413.2730347326
 10
6764.188032087
 20
5420.7722146193
 10
6754.8678445666
 20
5428.0524237433
 10
6745.8787832223
 20
5435.0726079575
 10
6736.0472942512
 20
5442.7489477896
 10
6726.7748952468
 20
5449.9869330234
 10
6720.8159176161
 20
5454.637450743
 10
6715.1888108484
 20
5459.0282006334
 10
6709.9380389731
 20
5463.1246078906
 10
6704.2070033179
 20
5467.5949100592
 10
6699.1281718096
 20
5471.5558427006
 10
6694.6663456852
 20
5475.0351687056
 10
6691.037974589
 20
5477.8644552681
 10
6688.3657493282
 20
5479.9483871311
 10
6686.6027750274
 20
5481.3237977308
 10
6685.7782724012
 20
5481.9681718507
 10
6685.84136474
 20
5481.9196492059
  0
LWPOLYLINE
  5
D0
330
1F
100
AcDbEntity
  8
0
  6
Continuous
 62
     7
370
    25
100
AcDbPolyline
 90
       66
 70
   128
 43
0.0
 10
6062.7603232116
 20
4251.2633673404
 10
6064.9499635014
 20
4245.0689942843
 10
6067.7614643704
 20
4238.0570124798
 10
6070.8422467277
 20
4231.2123535575
 10
6074.1820055542
 20
4224.5486189639
 10
6077.7704056217
 20
4218.0771884046
 10
6081.5972726265
 20
4211.8073817597
 10
6085.6527554169
 20
4205.7466439249
 10
6089.9332925497
 20
4199.8942660582
 10
6094.4233165884
 20
4194.2635096914
 10
6099.1307056627
 20
4188.8358873588
 10
6104.0406308707
 20
4183.6234782502
 10
6109.1387697129
 20
4178.6362187053
 10
6114.4116483542
 20
4173.8818990066
 10
6119.8467756917
 20
4169.3663982447
 10
6125.4327354743
 20
4165.0939323888
 10
6131.1592428667
 20
4161.0673041961
 10
6137.0171711401
 20
4157.2881471469
 10
6143.000063139
 20
4153.7577265054
 10
6149.0055234836
 20
4150.531791045
 10
6155.1489904419
 20
4147.5343578002
 10
6161.4506771119
 20
4144.7532621124
 10
6167.8858657371
 20
4142.1996309528
 10
6174.4313127148
 20
4139.8822996808
 10
6181.0638220436
 20
4137.8086500202
 10
6187.7606192936
 20
4135.9845712869
 10
6194.499696022
 20
4134.4144735591
 10
6201.2601096651
 20
4133.101349835
 10
6208.0222288182
 20
4132.046881057
 10
6214.7679181049
 20
4131.2515759454
 10
6221.4870211148
 20
4130.7130328308
 10
6228.2422872722
 20
4130.4187115575
 10
6235.0933186576
 20
4130.3665651468
 10
6241.9855530812
 20
4130.5613803628
 10
6248.8776001467
 20
4131.0047169322
 10
6255.7208154069
 20
4131.6949430327
 10
6262.4682311566
 20
4132.6252364712
 10
6269.1664734956
 20
4133.7939342742
 10
6275.8924941798
 20
4135.2191910695
 10
6282.5576911036
 20
4136.8873898871
 10
6289.1691569929
 20
4138.8008867573
 10
6295.7335285083
 20
4140.9629844589
 10
6302.2462576698
 20
4143.3752379085
 10
6308.6346282915
 20
4146.0143706526
 10
6314.9104123597
 20
4148.8825042743
 10
6321.1035914399
 20
4151.9941091481
 10
6327.2037772629
 20
4155.3475393172
 10
6333.1996731182
 20
4158.9403867271
 10
6339.0787622902
 20
4162.7691586439
 10
6344.8273413119
 20
4166.8290932077
 10
6350.4305828959
 20
4171.1139789174
 10
6355.8726358969
 20
4175.6159864881
 10
6361.1367664777
 20
4180.3255216217
 10
6366.2078275798
 20
4185.2321240194
 10
6371.0924797993
 20
4190.3410739271
 10
6375.8140769012
 20
4195.6822470293
 10
6380.3456965986
 20
4201.2332929263
 10
6384.6773502972
 20
4206.9882984988
 10
6388.7982654842
 20
4212.9396477308
 10
6392.6971421132
 20
4219.0780175503
 10
6396.3622795045
 20
4225.3922148086
 10
6399.7817335139
 20
4231.8690348396
 10
6402.9435039323
 20
4238.4931497246
 10
6405.8409120568
 20
4245.2495225553
 10
6408.5016528701
 20
4252.2123902232
 10
6410.5197076944
 20
4258.2153883919
  0
LINE
  5
D1
330
1F
100
AcDbEntity
  8
0
  6
Continuous
 62
     7
370
    25
100
AcDbLine
 10
6374.0336859201
 20
4440.0024411533
 30
0.0
 11
6373.394459517
 21
4440.7734931119
 31
0.0
  0
CIRCLE
  5
D2
330
1F
100
AcDbEntity
  8
0
  6
Continuous
 62
     7
370
    25
100
AcDbCircle
 10
6236.0187553361
 20
4351.5367335931
 30
0.0
 40
50.41994825785918
  0
CIRCLE
  5
D3
330
1F
100
AcDbEntity
  8
0
  6
Continuous
 62
     7
370
    25
100
AcDbCircle
 10
6236.0187553361
 20
4351.5367335931
 30
0.0
 40
53.49999999999972
  0
LWPOLYLINE
  5
D4
330
1F
100
AcDbEntity
  8
0
  6
Continuous
 62
     7
370
    25
100
AcDbPolyline
 90
       97
 70
   128
 43
0.0
 10
6376.0365001803
 20
4433.1089326682
 10
6374.7058990043
 20
4434.7847928317
 10
6365.0465262187
 20
4445.9063623954
 10
6354.3562835815
 20
4456.4276323702
 10
6346.4440439248
 20
4463.2242071077
 10
6338.0397714396
 20
4469.6561769424
 10
6329.1626426241
 20
4475.6693781431
 10
6319.4036254844
 20
4481.4483739422
 10
6309.1507627314
 20
4486.6714016039
 10
6298.1814152274
 20
4491.3746744096
 10
6286.767753029
 20
4495.3698201613
 10
6276.8311074052
 20
4498.1416451546
 10
6266.6617094031
 20
4500.3294158334
 10
6256.0606674981
 20
4501.930412379
 10
6245.3313974764
 20
4502.8627321568
 10
6232.6701478696
 20
4503.0788486973
 10
6220.040133269
 20
4502.3473045215
 10
6207.0823826126
 20
4500.5938106756
 10
6194.39725777
 20
4497.8719949892
 10
6182.5637743974
 20
4494.3918556152
 10
6171.1504767238
 20
4490.1300633874
 10
6159.9138132007
 20
4484.9998810931
 10
6149.2260368433
 20
4479.1885017632
 10
6137.214970058
 20
4471.4498764095
 10
6126.0541282158
 20
4462.9589054632
 10
6115.5031328812
 20
4453.5800113345
 10
6105.8503364736
 20
4443.6199062964
 10
6096.2737821782
 20
4432.1180162632
 10
6087.7333649628
 20
4420.1020951774
 10
6080.2256482391
 20
4407.6830706948
 10
6073.4823424306
 20
4394.4064342716
 10
6067.7958900023
 20
4380.8125925339
 10
6063.1606998653
 20
4366.9873435705
 10
6060.0295810528
 20
4355.0611149911
 10
6057.6447213407
 20
4343.0213313236
 10
6056.0087207418
 20
4330.9118071364
 10
6055.1119051359
 20
4318.4822291309
 10
6055.0055841729
 20
4306.0253139327
 10
6055.6995152678
 20
4293.5881581164
 10
6057.1329272756
 20
4281.6747028125
 10
6059.332572393
 20
4269.8261052948
 10
6062.3116147466
 20
4258.0917071402
 10
6066.2036832551
 20
4246.1897971908
 10
6070.9627329135
 20
4234.4739093676
 10
6076.6020197846
 20
4223.0142403661
 10
6081.472299035
 20
4214.5383809407
 10
6086.873002145
 20
4206.2571886995
 10
6092.8045442428
 20
4198.2107993236
 10
6099.4567398508
 20
4190.2239483323
 10
6106.6869710801
 20
4182.5441572777
 10
6114.482556458
 20
4175.2255411014
 10
6122.2394599142
 20
4168.7791033526
 10
6130.4782731899
 20
4162.7135185788
 10
6139.3304820562
 20
4156.9808297438
 10
6148.6463683634
 20
4151.7219622685
 10
6159.0769212127
 20
4146.6773601465
 10
6169.9631788519
 20
4142.2681579092
 10
6181.5444579522
 20
4138.4574638253
 10
6193.4837902953
 20
4135.4056347829
 10
6206.0466561128
 20
4133.1016923288
 10
6218.8167424374
 20
4131.6654320978
 10
6232.1172174103
 20
4131.1152467185
 10
6245.4267125542
 20
4131.5116154109
 10
6255.1976033744
 20
4132.4101476723
 10
6264.8830705511
 20
4133.8120426826
 10
6274.4228691704
 20
4135.7014725026
 10
6284.15433593
 20
4138.1699911419
 10
6293.6722834152
 20
4141.131596006
 10
6302.923847443
 20
4144.5566683891
 10
6315.7419214887
 20
4150.2643196242
 10
6327.8967982886
 20
4156.8085847145
 10
6339.6461198512
 20
4164.3296547022
 10
6350.5947010358
 20
4172.5645490861
 10
6358.5922959778
 20
4179.4622107792
 10
6366.0790676674
 20
4186.7155714196
 10
6373.0387960085
 20
4194.2775441397
 10
6379.6446777113
 20
4202.3416861706
 10
6385.7037772307
 20
4210.6747172596
 10
6391.2110120822
 20
4219.234196856
 10
6397.9294113229
 20
4231.3985940405
 10
6403.6299814578
 20
4243.8954260816
 10
6408.3175650139
 20
4256.6365240971
 10
6412.1281086807
 20
4270.0520465424
 10
6414.8950561265
 20
4283.637964229
 10
6416.6298059454
 20
4297.3172032469
 10
6417.3101828345
 20
4309.2295374101
 10
6417.2336522418
 20
4321.1612241395
 10
6416.4059500604
 20
4333.0680507616
 10
6414.7848414485
 20
4345.2015893466
 10
6412.3814618262
 20
4357.2626693766
 10
6409.198419786
 20
4369.203506141
 10
6405.5139902256
 20
4380.2332693152
 10
6401.1378914578
 20
4391.1130182024
 10
6396.0698809116
 20
4401.7977328397
 10
6390.1438229885
 20
4412.5224695002
 10
6383.4657507871
 20
4422.9804336763
 10
6376.0365001803
 20
4433.1089326682
  0
LWPOLYLINE
  5
D5
330
1F
100
AcDbEntity
  8
0
  6
Continuous
 62
     7
370
    25
100
AcDbPolyline
 90
       14
 70
   128
 43
0.0
 10
6377.6077676167
 20
4435.583713079
 10
6386.3925085273
 20
4423.4569746456
 10
6394.1335879268
 20
4410.8504800612
 10
6400.8306755451
 20
4397.856976841
 10
6406.4834411124
 20
4384.5692125003
 10
6411.0915543588
 20
4371.0799345541
 10
6414.8120477333
 20
4356.7935608583
 10
6417.4324456979
 20
4342.3164524577
 10
6418.9453883743
 20
4327.7281739017
 10
6419.3435158839
 20
4313.1082897397
 10
6418.6194683484
 20
4298.5363645209
 10
6416.9151690193
 20
4284.9993364124
 10
6414.1964850017
 20
4271.5091619379
 10
6410.5332733557
 20
4258.4284560407
  0
LWPOLYLINE
  5
D6
330
1F
100
AcDbEntity
  8
0
  6
Continuous
 62
     7
370
    25
100
AcDbPolyline
 90
       42
 70
   128
 43
0.0
 10
6062.71573091
 20
4251.4690058001
 10
6058.5711392196
 20
4265.6780784125
 10
6055.5624407992
 20
4280.2085511729
 10
6053.7097647354
 20
4294.808325607
 10
6052.9775316337
 20
4309.681708502
 10
6053.3779141202
 20
4324.6024563914
 10
6054.9002802769
 20
4339.4921041922
 10
6057.5339981857
 20
4354.2721868215
 10
6061.2684359287
 20
4368.8642391962
 10
6065.8408491366
 20
4382.517928705
 10
6071.4509116652
 20
4395.9971596484
 10
6078.1038117982
 20
4409.2036371215
 10
6085.804737819
 20
4422.0390662198
 10
6094.5588780115
 20
4434.4051520384
 10
6104.3714206591
 20
4446.2035996726
 10
6111.9953783851
 20
4454.1886515509
 10
6120.209131797
 20
4461.8418233706
 10
6128.994071058
 20
4469.0965436759
 10
6138.3315863314
 20
4475.8862410115
 10
6148.2030677804
 20
4482.1443439218
 10
6158.8532043927
 20
4487.9349772499
 10
6170.078436825
 20
4493.0729009237
 10
6181.7886907478
 20
4497.4715621925
 10
6193.8938918313
 20
4501.0444083059
 10
6206.4696418482
 20
4503.7401016935
 10
6219.368977032
 20
4505.5015286542
 10
6232.4181612088
 20
4506.2973016301
 10
6245.4434582047
 20
4506.0960330634
 10
6256.8298709665
 20
4505.0817430269
 10
6268.1076664429
 20
4503.3166693733
 10
6279.1729390475
 20
4500.8415705606
 10
6289.9217831943
 20
4497.6972050468
 10
6300.6141904012
 20
4493.7967701529
 10
6310.9361377482
 20
4489.2683788752
 10
6320.8328948762
 20
4484.1763559256
 10
6330.2497314259
 20
4478.585026016
 10
6335.1974855346
 20
4475.3283950015
 10
6344.6867372832
 20
4468.4129209012
 10
6353.593921399
 20
4461.0315401194
 10
6362.2245633936
 20
4452.9281349777
 10
6370.2322908525
 20
4444.4248141242
 10
6377.6077676167
 20
4435.583713079
  0
LWPOLYLINE
  5
D7
330
1F
100
AcDbEntity
  8
0
  6
Continuous
 62
     7
370
    25
100
AcDbPolyline
 90
       57
 70
   128
 43
0.0
 10
6396.9483720904
 20
4386.2454217054
 10
6400.7846004853
 20
4376.150041004
 10
6404.0250581593
 20
4365.9264489879
 10
6407.5244701839
 20
4351.6331353379
 10
6409.8999830233
 20
4337.1558295917
 10
6411.1432208633
 20
4322.5774460014
 10
6411.2458078896
 20
4307.9808988194
 10
6410.199368288
 20
4293.4491022977
 10
6408.4239653418
 20
4281.3322632261
 10
6405.8138527324
 20
4269.2790804064
 10
6402.3607327008
 20
4257.3503952039
 10
6398.0563074879
 20
4245.6070489841
 10
6392.8922793347
 20
4234.1098831123
 10
6386.6387740031
 20
4222.5406219185
 10
6379.4155912302
 20
4211.2926288558
 10
6371.2314323276
 20
4200.4646162448
 10
6362.0949986072
 20
4190.1552964061
 10
6353.5965574124
 20
4181.8804844052
 10
6344.3844788641
 20
4174.0557558189
 10
6334.4991080673
 20
4166.7623759578
 10
6323.9807901271
 20
4160.0816101322
 10
6314.0155666674
 20
4154.6609635431
 10
6303.5489847842
 20
4149.8067009024
 10
6292.6555545582
 20
4145.5795443482
 10
6281.4097860703
 20
4142.0402160182
 10
6269.9795284962
 20
4139.2626513305
 10
6258.2599106138
 20
4137.2168202546
 10
6246.3688621724
 20
4135.9335609956
 10
6234.4243129215
 20
4135.4437117583
 10
6223.1515366509
 20
4135.7246522077
 10
6211.9252988582
 20
4136.7154720039
 10
6200.8530504109
 20
4138.4035700087
 10
6189.457511233
 20
4140.924410482
 10
6178.3134723914
 20
4144.1877854213
 10
6167.5093268213
 20
4148.1387953892
 10
6157.1334674578
 20
4152.7225409481
 10
6147.2742872362
 20
4157.8841226603
 10
6135.7589800312
 20
4165.0561010342
 10
6125.0267195652
 20
4172.9999861699
 10
6115.1326280228
 20
4181.5994543999
 10
6106.1318275885
 20
4190.7381820568
 10
6098.0049137375
 20
4200.3704437564
 10
6090.7133547269
 20
4210.4542226645
 10
6084.2514900049
 20
4220.9139846882
 10
6078.6136590194
 20
4231.6741957346
 10
6073.7942012186
 20
4242.6593217108
 10
6069.7874560505
 20
4253.793828524
 10
6066.0225256798
 20
4267.2634345266
 10
6063.3139037331
 20
4280.9248815007
 10
6061.6419950515
 20
4294.7042902245
 10
6060.9872044763
 20
4308.5277814757
 10
6061.3299368486
 20
4322.3214760325
 10
6062.5579399416
 20
4335.3250319984
 10
6064.6617556846
 20
4348.287818725
 10
6067.6395343349
 20
4361.1528782565
 10
6071.4894261497
 20
4373.8632526371
 10
6076.2095813862
 20
4386.3619839113
  0
LWPOLYLINE
  5
D8
330
1F
100
AcDbEntity
  8
0
  6
Continuous
 62
     7
370
    25
100
AcDbPolyline
 90
       37
 70
   128
 43
0.0
 10
6076.2095813862
 20
4386.3619839113
 10
6081.798071518
 20
4398.4405559402
 10
6088.2829120767
 20
4410.2816920507
 10
6095.6680042676
 20
4421.7996708516
 10
6103.9572492959
 20
4432.9087709513
 10
6113.1545483669
 20
4443.5232709586
 10
6120.8781561535
 20
4451.3180477853
 10
6129.2019736476
 20
4458.7654926364
 10
6138.10598143
 20
4465.7920799251
 10
6147.5701600814
 20
4472.3242840649
 10
6157.5744901825
 20
4478.2885794688
 10
6166.570255761
 20
4482.8954051166
 10
6175.9739381365
 20
4487.0134980357
 10
6185.7269801684
 20
4490.5855475002
 10
6195.770824716
 20
4493.5542427841
 10
6205.7935180427
 20
4495.8178464443
 10
6216.0481146907
 20
4497.4505867155
 10
6226.4346896559
 20
4498.427661631
 10
6236.8533179344
 20
4498.724269224
 10
6246.1272508758
 20
4498.4074540147
 10
6255.346736691
 20
4497.5566095888
 10
6266.3984587236
 20
4495.8148179924
 10
6277.2583961696
 20
4493.3294653101
 10
6287.8305638504
 20
4490.1571417179
 10
6298.0189765871
 20
4486.3544373921
 10
6308.3022684932
 20
4481.7146320701
 10
6318.1519935699
 20
4476.4700351542
 10
6327.5320524391
 20
4470.6897351379
 10
6336.4063457227
 20
4464.4428205146
 10
6344.7387740426
 20
4457.798379778
 10
6354.3674898632
 20
4449.0351349526
 10
6363.2349584325
 20
4439.757948872
 10
6371.333113099
 20
4430.0502442556
 10
6378.6538872112
 20
4419.9954438229
 10
6385.5723460563
 20
4409.0319900982
 10
6391.6708276556
 20
4397.76019959
 10
6396.9483720904
 20
4386.2454217054
  0
LINE
  5
D9
330
1F
100
AcDbEntity
  8
0
  6
Continuous
 62
     7
370
    25
100
AcDbLine
 10
6395.1596679255
 20
4386.6045483458
 30
0.0
 11
6395.1587883679
 21
4386.6066513143
 31
0.0
  0
LWPOLYLINE
  5
DA
330
1F
100
AcDbEntity
  8
0
  6
Continuous
 62
     7
370
    25
100
AcDbPolyline
 90
       39
 70
   128
 43
0.0
 10
6395.1587883679
 20
4386.6066513143
 10
6395.1587698107
 20
4386.6066957709
 10
6389.9755823817
 20
4397.9662551763
 10
6383.9886317422
 20
4409.0924254701
 10
6377.1956629849
 20
4419.9247743159
 10
6370.0008944315
 20
4429.8749395772
 10
6362.0339758487
 20
4439.4936987827
 10
6353.2996495023
 20
4448.6971354583
 10
6343.8026576579
 20
4457.4013331294
 10
6335.5737842076
 20
4464.0076836688
 10
6326.7997618025
 20
4470.2241456109
 10
6317.516535488
 20
4475.9805495615
 10
6307.7600503099
 20
4481.2067261262
 10
6297.5662513134
 20
4485.8325059107
 10
6287.4620373481
 20
4489.6242634091
 10
6276.9708929364
 20
4492.7888332278
 10
6266.189545289
 20
4495.2689947591
 10
6255.2147216168
 20
4497.007527395
 10
6246.0587837032
 20
4497.8567713905
 10
6236.8479110777
 20
4498.1731113766
 10
6226.5002711945
 20
4497.8771617301
 10
6216.1849364427
 20
4496.9021252018
 10
6206.0026652745
 20
4495.2730771654
 10
6196.0542161425
 20
4493.0150929947
 10
6186.0868465835
 20
4490.0536322983
 10
6176.412791561
 20
4486.4912736338
 10
6167.0909945319
 20
4482.386048671
 10
6158.1803989535
 20
4477.7959890798
 10
6148.2776834029
 20
4471.8554426007
 10
6138.9194587878
 20
4465.3538456159
 10
6130.1247458211
 20
4458.3659185136
 10
6121.9125652154
 20
4450.9663816819
 10
6114.3019376837
 20
4443.2299555089
 10
6106.5663358581
 20
4434.3371158327
 10
6099.4977968521
 20
4425.1165078548
 10
6091.2654673544
 20
4412.6911863664
 10
6084.0997490819
 20
4399.8562989483
 10
6077.9894654131
 20
4386.7070799596
 10
6077.9894467138
 20
4386.7070355247
  0
LINE
  5
DB
330
1F
100
AcDbEntity
  8
0
  6
Continuous
 62
     7
370
    25
100
AcDbLine
 10
6077.9894467138
 20
4386.7070355247
 30
0.0
 11
6077.9886418112
 21
4386.7051267853
 31
0.0
  0
ARC
  5
DC
330
1F
100
AcDbEntity
  8
0
  6
Continuous
 62
     7
370
    25
100
AcDbCircle
 10
6076.7995722459
 20
4388.086548718
 30
0.0
 40
1.822693881896658
100
AcDbArc
 50
251.1136698522
 51
310.7204774306
  0
ARC
  5
DD
330
1F
100
AcDbEntity
  8
0
  6
Continuous
 62
     7
370
    25
100
AcDbCircle
 10
6396.3423872697
 20
4387.8612575379
 30
0.0
 40
1.72572971255039
100
AcDbArc
 50
226.7372948935
 51
290.5574871407
  0
ARC
  5
DE
330
1F
100
AcDbEntity
  8
0
  6
Continuous
 62
     7
370
    25
100
AcDbCircle
 10
6218.8193799569
 20
4310.7560902372
 30
0.0
 40
201.9826974706913
100
AcDbArc
 50
40.0673155327
 51
43.2882586645
  0
LWPOLYLINE
  5
DF
330
1F
100
AcDbEntity
  8
0
  6
Continuous
 62
     7
370
    25
100
AcDbPolyline
 90
       24
 70
   128
 43
0.0
 10
6120.8233067092
 20
4462.2738896797
 10
6124.2586337231
 20
4465.3329337235
 10
6133.5725529294
 20
4472.6635908632
 10
6143.327352181
 20
4479.4011897136
 10
6153.9141372138
 20
4485.7307895528
 10
6164.9392838729
 20
4491.3416545169
 10
6176.334995986
 20
4496.173579575
 10
6186.0725857331
 20
4499.5683115454
 10
6196.0202931779
 20
4502.378466806
 10
6206.1229865022
 20
4504.5784702628
 10
6216.7541290494
 20
4506.1986042831
 10
6227.4871596472
 20
4507.1332531861
 10
6238.2491129522
 20
4507.3724548624
 10
6251.721664117
 20
4506.6832130045
 10
6265.0851548711
 20
4504.910275334
 10
6278.6300075681
 20
4501.9733544526
 10
6291.8687112336
 20
4497.9526783425
 10
6304.3205244567
 20
4493.0683264367
 10
6316.3424277459
 20
4487.2665231401
 10
6328.1450773338
 20
4480.4335456475
 10
6339.3917262386
 20
4472.7612500518
 10
6348.7479807223
 20
4465.4051095435
 10
6357.6592996784
 20
4457.4645738127
 10
6365.8452685184
 20
4449.2494047698
  0
LINE
  5
E0
330
1F
100
AcDbEntity
  8
0
  6
Continuous
 62
     7
370
    25
100
AcDbLine
 10
6392.3430883118
 20
4382.2627270175
 30
0.0
 11
6395.1583103609
 21
4386.6059138684
 31
0.0
  0
LWPOLYLINE
  5
E1
330
1F
100
AcDbEntity
  8
0
  6
Continuous
 62
     7
370
    25
100
AcDbPolyline
 90
       33
 70
   128
 43
0.0
 10
6392.3430883118
 20
4382.2627270175
 10
6386.4574949004
 20
4390.4317801586
 10
6379.8772785263
 20
4398.2665428005
 10
6372.6340292678
 20
4405.7321187962
 10
6364.7606314534
 20
4412.7921794802
 10
6356.2940295824
 20
4419.4158444836
 10
6347.2732111848
 20
4425.5705225349
 10
6337.7401163007
 20
4431.2295607908
 10
6327.7390048092
 20
4436.3648293177
 10
6317.3160352809
 20
4440.9543965854
 10
6306.5199199469
 20
4444.9751151553
 10
6295.4001807293
 20
4448.410181138
 10
6284.0090797357
 20
4451.2418584372
 10
6272.3985847447
 20
4453.4587821287
 10
6260.6235394915
 20
4455.0489560518
 10
6248.7373948087
 20
4456.0066648031
 10
6236.7965599803
 20
4456.3258744124
 10
6224.8549786202
 20
4456.0066248818
 10
6212.9695804541
 20
4455.0489562238
 10
6201.1938024914
 20
4453.4586631054
 10
6189.5840401654
 20
4451.2418587779
 10
6178.1922338577
 20
4448.4099852192
 10
6167.0731998809
 20
4444.9751156584
 10
6156.2764196921
 20
4440.9541274005
 10
6145.8541149179
 20
4436.364829974
 10
6135.8523913431
 20
4431.2292233248
 10
6126.3199084161
 20
4425.5705233321
 10
6117.2985420493
 20
4419.4154449882
 10
6108.8324879981
 20
4412.7921804036
 10
6100.958616484
 20
4405.7316646762
 10
6093.7158407554
 20
4398.266543833
 10
6087.135450775
 20
4390.4315200654
 10
6081.2500307829
 20
4382.26272814
  0
LINE
  5
E2
330
1F
100
AcDbEntity
  8
0
  6
Continuous
 62
     7
370
    25
100
AcDbLine
 10
6077.9899500139
 20
4386.7063495061
 30
0.0
 11
6081.2500300363
 21
4382.2627270163
 31
0.0
  0
LWPOLYLINE
  5
E3
330
1F
100
AcDbEntity
  8
0
  6
Continuous
 62
     7
370
    25
100
AcDbPolyline
 90
        3
 70
   128
 43
0.0
 10
6077.9886418112
 20
4386.7051267853
 10
6077.98942325
 20
4386.7061430026
 10
6077.9899500139
 20
4386.7063495061
  0
ARC
  5
E4
330
1F
100
AcDbEntity
  8
0
  6
Continuous
 62
     7
370
    25
100
AcDbCircle
 10
6395.1572130666
 20
4386.6034653811
 30
0.0
 40
0.0026831222501915
100
AcDbArc
 50
23.8047453905
 51
65.8603711653
  0
LINE
  5
E5
330
1F
100
AcDbEntity
  8
0
  6
Continuous
 62
     7
370
    25
100
AcDbLine
 10
6106.1922421538
 20
4557.4645738127
 30
0.0
 11
6106.1922421538
 21
4448.1495253318
 31
0.0
  0
LINE
  5
E6
330
1F
100
AcDbEntity
  8
0
  6
Continuous
 62
     7
370
    25
100
AcDbLine
 10
6365.8452685184
 20
4449.2494047698
 30
0.0
 11
6365.8452685184
 21
4557.4645738127
 31
0.0
  0
LINE
  5
E7
330
1F
100
AcDbEntity
  8
0
  6
Continuous
 62
     7
370
    25
100
AcDbLine
 10
6106.1922421538
 20
4557.4645738127
 30
0.0
 11
6365.8452685184
 21
4557.4645738127
 31
0.0
  0
LINE
  5
E8
330
1F
100
AcDbEntity
  8
0
  6
Continuous
 62
     7
370
    25
100
AcDbLine
 10
6373.394459517
 20
4557.4645738127
 30
0.0
 11
6373.394459517
 21
4440.7697620433
 31
0.0
  0
LINE
  5
E9
330
1F
100
AcDbEntity
  8
0
  6
Continuous
 62
     7
370
    25
100
AcDbLine
 10
6365.8452685184
 20
4557.4645738127
 30
0.0
 11
6373.394459517
 21
4557.4645738127
 31
0.0
  0
LINE
  5
EA
330
1F
100
AcDbEntity
  8
0
  6
Continuous
 62
     7
370
    25
100
AcDbLine
 10
6098.6430511552
 20
4439.4072230952
 30
0.0
 11
6098.6430511552
 21
4557.4645738127
 31
0.0
  0
LINE
  5
EB
330
1F
100
AcDbEntity
  8
0
  6
Continuous
 62
     7
370
    25
100
AcDbLine
 10
6098.6430511552
 20
4557.4645738127
 30
0.0
 11
6106.1922421538
 21
4557.4645738127
 31
0.0
  0
LWPOLYLINE
  5
EC
330
1F
100
AcDbEntity
  8
0
  6
Continuous
 62
     7
370
    25
100
AcDbPolyline
 90
       18
 70
   128
 43
0.0
 10
6392.3430883118
 20
4382.2627270174
 10
6374.8535758987
 20
4382.9459313252
 10
6357.3632730697
 20
4384.1296387556
 10
6339.8722712769
 20
4385.7342528043
 10
6326.7536162518
 20
4387.1660510371
 10
6313.634658083
 20
4388.756256434
 10
6311.4481382916
 20
4389.0343335242
 10
6309.2616113299
 20
4389.3157225799
 10
6307.0750773765
 20
4389.6002681393
 10
6304.88853661
 20
4389.8878147403
 10
6302.7019926997
 20
4390.0123979174
 10
6300.5154610857
 20
4389.3029453283
 10
6298.328943964
 20
4387.7886641088
 10
6296.1424417833
 20
4385.5854753542
 10
6293.955954992
 20
4382.8093001596
 10
6291.7694840387
 20
4379.5760596204
 10
6289.5830293719
 20
4376.0016748317
 10
6287.3965914402
 20
4372.2020668889
  0
ARC
  5
ED
330
1F
100
AcDbEntity
  8
0
  6
Continuous
 62
     7
370
    25
100
AcDbCircle
 10
6236.0187553361
 20
4351.5367335931
 30
0.0
 40
55.37813686793817
100
AcDbArc
 50
21.9111121846
 51
157.9332729982
  0
LWPOLYLINE
  5
EE
330
1F
100
AcDbEntity
  8
0
  6
Continuous
 62
     7
370
    25
100
AcDbPolyline
 90
       18
 70
   128
 43
0.0
 10
6081.2500300363
 20
4382.2627270163
 10
6098.4896663642
 20
4383.1769301945
 10
6115.7300905531
 20
4384.5184933336
 10
6132.9712111256
 20
4386.2073486376
 10
6145.9024535273
 20
4387.653734815
 10
6158.8339975968
 20
4389.2166560982
 10
6160.9892815607
 20
4389.4861009807
 10
6163.1445726537
 20
4389.7576882726
 10
6165.2998706969
 20
4390.0312615915
 10
6167.4551755118
 20
4390.3066645548
 10
6169.610483451
 20
4390.4167443629
 10
6171.7657791718
 20
4389.6856468791
 10
6173.9210604925
 20
4388.1428437676
 10
6176.076326968
 20
4385.9051432695
 10
6178.2315781533
 20
4383.089353626
 10
6180.3868136034
 20
4379.8122830781
 10
6182.5420328732
 20
4376.1907398671
 10
6184.6972355177
 20
4372.341532234
  0
LWPOLYLINE
  5
EF
330
1F
100
AcDbEntity
  8
0
  6
Continuous
 62
     7
370
    25
100
AcDbPolyline
 90
       59
 70
   128
 43
0.0
 10
6077.9899500139
 20
4386.7063495061
 10
6077.9899314399
 20
4386.7063048393
 10
6073.3227882217
 20
4374.3237374535
 10
6069.5184969193
 20
4361.7330493975
 10
6066.5786165314
 20
4348.9903975973
 10
6064.5047060566
 20
4336.1519389787
 10
6063.2983244936
 20
4323.2738304679
 10
6062.9693089633
 20
4309.6193567478
 10
6063.6278985561
 20
4295.9365070769
 10
6065.2937437143
 20
4282.2980952703
 10
6067.9864948806
 20
4268.7769351433
 10
6071.7258024973
 20
4255.4458405109
 10
6075.696094393
 20
4244.4441366122
 10
6080.4695080931
 20
4233.5899825531
 10
6086.052270752
 20
4222.957848645
 10
6092.4506095244
 20
4212.6222051992
 10
6099.6707515647
 20
4202.6575225271
 10
6107.7189240276
 20
4193.1382709402
 10
6116.6129550576
 20
4184.1258865237
 10
6126.3902040832
 20
4175.6438603349
 10
6136.9971925015
 20
4167.8072382453
 10
6148.3804417094
 20
4160.7310661269
 10
6158.1109027163
 20
4155.6466183499
 10
6168.3528466535
 20
4151.1302707333
 10
6179.0190121433
 20
4147.2365679643
 10
6190.0221378077
 20
4144.0200547301
 10
6201.2749622689
 20
4141.535275718
 10
6212.2021762309
 20
4139.872408647
 10
6223.2820944241
 20
4138.8962248886
 10
6234.4081553883
 20
4138.6192858386
 10
6246.2006879869
 20
4139.1019495118
 10
6257.9400652484
 20
4140.3665160257
 10
6269.509421907
 20
4142.3822909362
 10
6280.7918926969
 20
4145.1185797992
 10
6291.9035345917
 20
4148.6090379963
 10
6302.6655462254
 20
4152.7775349919
 10
6313.0044949445
 20
4157.5637492822
 10
6322.8469480956
 20
4162.9073593633
 10
6333.250177547
 20
4169.5023308626
 10
6343.0258738996
 20
4176.7012935862
 10
6352.1347806822
 20
4184.4238031532
 10
6360.5376414237
 20
4192.5894151827
 10
6369.5850151931
 20
4202.777454821
 10
6377.6888396596
 20
4213.4771761094
 10
6384.8412925617
 20
4224.5911434205
 10
6391.0345516382
 20
4236.0219211266
 10
6396.1565685499
 20
4247.3957428559
 10
6400.426963268
 20
4259.0129033661
 10
6403.8542518238
 20
4270.8133905754
 10
6406.4469502486
 20
4282.737192402
 10
6408.2135745735
 20
4294.7242967641
 10
6409.261301914
 20
4309.1110782567
 10
6409.1706994842
 20
4323.5625315603
 10
6407.950035024
 20
4337.996853127
 10
6405.6075762734
 20
4352.3322394089
 10
6402.1515909723
 20
4366.4868868581
 10
6398.8590169006
 20
4376.871339944
 10
6395.1583287771
 20
4386.6058691611
 10
6395.1583103609
 20
4386.6059138684
  0
LWPOLYLINE
  5
F0
330
1F
100
AcDbEntity
  8
0
  6
Continuous
 62
     7
370
    25
100
AcDbPolyline
 90
       53
 70
   128
 43
0.0
 10
6081.2500300363
 20
4382.2627270163
 10
6076.2180302469
 20
4367.7505789174
 10
6072.4079759773
 20
4352.9758250677
 10
6069.8229331781
 20
4338.0067310662
 10
6068.4765625949
 20
4322.9095005954
 10
6068.3917570175
 20
4307.7499310703
 10
6069.3033375501
 20
4295.1180863285
 10
6071.1314365936
 20
4282.5346808668
 10
6073.9004565725
 20
4270.0458791961
 10
6077.6357876679
 20
4257.7007731992
 10
6082.3670312094
 20
4245.5609352074
 10
6088.1249105748
 20
4233.6912629314
 10
6094.9382699368
 20
4222.1615394531
 10
6102.8277694261
 20
4211.0628236693
 10
6111.8118418249
 20
4200.4919648505
 10
6119.2768054094
 20
4192.9704736073
 10
6127.3591357078
 20
4185.8543632041
 10
6136.0477560749
 20
4179.19830915
 10
6145.3242872884
 20
4173.0571835174
 10
6155.1646293081
 20
4167.4862353207
 10
6165.527663352
 20
4162.5422293982
 10
6176.3641940933
 20
4158.2808928022
 10
6187.6104179699
 20
4154.7508004547
 10
6199.1952956761
 20
4151.9959794522
 10
6211.033886411
 20
4150.0487459921
 10
6223.0360337103
 20
4148.9343480645
 10
6235.106719669
 20
4148.6607000897
 10
6247.1565182985
 20
4149.2277609202
 10
6259.1014593128
 20
4150.621665908
 10
6270.8520601186
 20
4152.821277418
 10
6282.3286381771
 20
4155.7920247593
 10
6293.4575104277
 20
4159.4938089628
 10
6304.1794364959
 20
4163.8797950432
 10
6314.4421919495
 20
4168.9005043368
 10
6324.2061448517
 20
4174.5036076474
 10
6333.4381326198
 20
4180.636548316
 10
6342.1177401216
 20
4187.2497503801
 10
6350.229444318
 20
4194.2947575239
 10
6357.7629457609
 20
4201.7242209695
 10
6366.8974449884
 20
4212.1508662995
 10
6374.9961507208
 20
4223.0912607885
 10
6382.0678306775
 20
4234.4602063846
 10
6388.122852259
 20
4246.17625755
 10
6393.178548573
 20
4258.1743102195
 10
6397.254148497
 20
4270.3937077827
 10
6400.3683919014
 20
4282.7760179591
 10
6402.5379336697
 20
4295.2722912078
 10
6403.7788731469
 20
4307.8361046372
 10
6404.063044954
 20
4322.9383057781
 10
6403.04955225
 20
4338.0019741403
 10
6400.7542708969
 20
4352.9582173164
 10
6397.1853492623
 20
4367.7361228761
 10
6392.3430883118
 20
4382.2627270174
  0
ARC
  5
F1
330
1F
100
AcDbEntity
  8
0
  6
Continuous
 62
     7
370
    25
100
AcDbCircle
 10
6236.0187553361
 20
4351.5367335931
 30
0.0
 40
55.37813686793783
100
AcDbArc
 50
157.9332729982
 51
21.9111121846
  0
CIRCLE
  5
F2
330
1F
100
AcDbEntity
  8
0
  6
Continuous
 62
     7
370
    25
100
AcDbCircle
 10
6236.0187553361
 20
4351.5367335931
 30
0.0
 40
55.31225774829909
  0
ENDSEC
  0
SECTION
  2
OBJECTS
  0
DICTIONARY
  5
C
330
0
100
AcDbDictionary
281
     1
  3
ACAD_GROUP
350
D
  3
ACAD_LAYOUT
350
1A
  3
ACAD_MLINESTYLE
350
17
  3
ACAD_PLOTSETTINGS
350
19
  3
ACAD_PLOTSTYLENAME
350
E
  3
ACAD_SCALELIST
350
47
  3
DWGPROPS
350
F3
  0
DICTIONARY
  5
D
102
{ACAD_REACTORS
330
C
102
}
330
C
100
AcDbDictionary
281
     1
  0
DICTIONARY
  5
1A
102
{ACAD_REACTORS
330
C
102
}
330
C
100
AcDbDictionary
281
     1
  3
Layout1
350
1E
  3
Layout2
350
26
  3
Model
350
22
  0
DICTIONARY
  5
17
102
{ACAD_REACTORS
330
C
102
}
330
C
100
AcDbDictionary
281
     1
  3
Standard
350
18
  0
DICTIONARY
  5
19
102
{ACAD_REACTORS
330
C
102
}
330
C
100
AcDbDictionary
281
     1
  0
ACDBDICTIONARYWDFLT
  5
E
102
{ACAD_REACTORS
330
C
102
}
330
C
100
AcDbDictionary
281
     1
  3
Normal
350
F
100
AcDbDictionaryWithDefault
340
F
  0
DICTIONARY
  5
47
102
{ACAD_REACTORS
330
C
102
}
330
C
100
AcDbDictionary
281
     1
  3
A0
350
48
  3
A1
350
49
  3
A2
350
4A
  3
A3
350
4B
  3
A4
350
4C
  3
A5
350
4D
  3
A6
350
4E
  3
A7
350
4F
  3
A8
350
50
  3
A9
350
51
  3
B0
350
52
  3
B1
350
53
  3
B2
350
54
  3
B3
350
55
  3
B4
350
56
  3
B5
350
57
  3
B6
350
58
  3
B7
350
59
  3
B8
350
5A
  3
B9
350
5B
  3
C0
350
5C
  3
C1
350
5D
  3
C2
350
5E
  3
C3
350
5F
  3
C4
350
60
  3
C5
350
61
  3
C6
350
62
  3
C7
350
63
  3
C8
350
64
  3
C9
350
65
  3
D0
350
66
  3
D1
350
67
  3
D2
350
68
  0
XRECORD
  5
F3
102
{ACAD_REACTORS
330
C
102
}
330
C
100
AcDbXrecord
280
     1
  1
DWGPROPS COOKIE
  2

  3

  4

  6

  7

  8
radek.stransky
  9

300
=
301
=
302
=
303
=
304
=
305
=
306
=
307
=
308
=
309
=
 40
0.0
 41
2459891.308232604
 42
2459891.308232847
  1

 90
        0
  0
LAYOUT
  5
1E
102
{ACAD_REACTORS
330
1A
102
}
330
1A
100
AcDbPlotSettings
  1

  2
none_device
  4

  6

 40
0.0
 41
0.0
 42
0.0
 43
0.0
 44
0.0
 45
0.0
 46
0.0
 47
0.0
 48
0.0
 49
0.0
140
0.0
141
0.0
142
1.0
143
1.0
 70
   688
 72
     1
 73
     0
 74
     5
  7

 75
    16
147
1.0
148
0.0
149
0.0
100
AcDbLayout
  1
Layout1
 70
     1
 71
     1
 10
0.0
 20
0.0
 11
420.0
 21
297.0
 12
0.0
 22
0.0
 32
0.0
 14
1.0000000000E+20
 24
1.0000000000E+20
 34
1.0000000000E+20
 15
-1.0000000000E+20
 25
-1.0000000000E+20
 35
-1.0000000000E+20
146
0.0
 13
0.0
 23
0.0
 33
0.0
 16
1.0
 26
0.0
 36
0.0
 17
0.0
 27
1.0
 37
0.0
 76
     0
330
1B
  0
LAYOUT
  5
26
102
{ACAD_REACTORS
330
1A
102
}
330
1A
100
AcDbPlotSettings
  1

  2
none_device
  4

  6

 40
0.0
 41
0.0
 42
0.0
 43
0.0
 44
0.0
 45
0.0
 46
0.0
 47
0.0
 48
0.0
 49
0.0
140
0.0
141
0.0
142
1.0
143
1.0
 70
   688
 72
     1
 73
     0
 74
     5
  7

 75
    16
147
1.0
148
0.0
149
0.0
100
AcDbLayout
  1
Layout2
 70
     1
 71
     2
 10
0.0
 20
0.0
 11
0.0
 21
0.0
 12
0.0
 22
0.0
 32
0.0
 14
0.0
 24
0.0
 34
0.0
 15
0.0
 25
0.0
 35
0.0
146
0.0
 13
0.0
 23
0.0
 33
0.0
 16
1.0
 26
0.0
 36
0.0
 17
0.0
 27
1.0
 37
0.0
 76
     0
330
23
  0
LAYOUT
  5
22
102
{ACAD_REACTORS
330
1A
102
}
330
1A
100
AcDbPlotSettings
  1

  2
none_device
  4
Letter_(8.50_x_11.00_Inches)
  6

 40
6.35
 41
6.35
 42
6.35000508
 43
6.35000508
 44
215.9
 45
279.4
 46
0.0
 47
0.0
 48
0.0
 49
0.0
140
0.0
141
0.0
142
1.0
143
1.0
 70
  1712
 72
     1
 73
     0
 74
     0
  7

 75
     0
147
1.0
148
0.0
149
0.0
100
AcDbLayout
  1
Model
 70
     1
 71
     0
 10
0.0
 20
0.0
 11
20000.0
 21
10000.0
 12
0.0
 22
0.0
 32
0.0
 14
0.0
 24
0.0
 34
0.0
 15
20000.0
 25
10000.0
 35
0.0
146
0.0
 13
0.0
 23
0.0
 33
0.0
 16
1.0
 26
0.0
 36
0.0
 17
0.0
 27
1.0
 37
0.0
 76
     0
330
1F
331
29
  0
MLINESTYLE
  5
18
102
{ACAD_REACTORS
330
17
102
}
330
17
100
AcDbMlineStyle
  2
Standard
 70
     0
  3

 62
   256
 51
90.0
 52
90.0
 71
     2
 49
0.5
 62
   256
  6
BYLAYER
 49
-0.5
 62
   256
  6
BYLAYER
  0
ACDBPLACEHOLDER
  5
F
102
{ACAD_REACTORS
330
E
102
}
330
E
  0
SCALE
  5
48
102
{ACAD_REACTORS
330
47
102
}
330
47
100
AcDbScale
 70
     0
300
1:1
140
1.0
141
1.0
290
     1
  0
SCALE
  5
49
102
{ACAD_REACTORS
330
47
102
}
330
47
100
AcDbScale
 70
     0
300
1:2
140
1.0
141
2.0
290
     0
  0
SCALE
  5
4A
102
{ACAD_REACTORS
330
47
102
}
330
47
100
AcDbScale
 70
     0
300
1:4
140
1.0
141
4.0
290
     0
  0
SCALE
  5
4B
102
{ACAD_REACTORS
330
47
102
}
330
47
100
AcDbScale
 70
     0
300
1:5
140
1.0
141
5.0
290
     0
  0
SCALE
  5
4C
102
{ACAD_REACTORS
330
47
102
}
330
47
100
AcDbScale
 70
     0
300
1:8
140
1.0
141
8.0
290
     0
  0
SCALE
  5
4D
102
{ACAD_REACTORS
330
47
102
}
330
47
100
AcDbScale
 70
     0
300
1:10
140
1.0
141
10.0
290
     0
  0
SCALE
  5
4E
102
{ACAD_REACTORS
330
47
102
}
330
47
100
AcDbScale
 70
     0
300
1:16
140
1.0
141
16.0
290
     0
  0
SCALE
  5
4F
102
{ACAD_REACTORS
330
47
102
}
330
47
100
AcDbScale
 70
     0
300
1:20
140
1.0
141
20.0
290
     0
  0
SCALE
  5
50
102
{ACAD_REACTORS
330
47
102
}
330
47
100
AcDbScale
 70
     0
300
1:30
140
1.0
141
30.0
290
     0
  0
SCALE
  5
51
102
{ACAD_REACTORS
330
47
102
}
330
47
100
AcDbScale
 70
     0
300
1:40
140
1.0
141
40.0
290
     0
  0
SCALE
  5
52
102
{ACAD_REACTORS
330
47
102
}
330
47
100
AcDbScale
 70
     0
300
1:50
140
1.0
141
50.0
290
     0
  0
SCALE
  5
53
102
{ACAD_REACTORS
330
47
102
}
330
47
100
AcDbScale
 70
     0
300
1:100
140
1.0
141
100.0
290
     0
  0
SCALE
  5
54
102
{ACAD_REACTORS
330
47
102
}
330
47
100
AcDbScale
 70
     0
300
2:1
140
2.0
141
1.0
290
     0
  0
SCALE
  5
55
102
{ACAD_REACTORS
330
47
102
}
330
47
100
AcDbScale
 70
     0
300
4:1
140
4.0
141
1.0
290
     0
  0
SCALE
  5
56
102
{ACAD_REACTORS
330
47
102
}
330
47
100
AcDbScale
 70
     0
300
8:1
140
8.0
141
1.0
290
     0
  0
SCALE
  5
57
102
{ACAD_REACTORS
330
47
102
}
330
47
100
AcDbScale
 70
     0
300
10:1
140
10.0
141
1.0
290
     0
  0
SCALE
  5
58
102
{ACAD_REACTORS
330
47
102
}
330
47
100
AcDbScale
 70
     0
300
100:1
140
100.0
141
1.0
290
     0
  0
SCALE
  5
59
102
{ACAD_REACTORS
330
47
102
}
330
47
100
AcDbScale
 70
     0
300
1/128" = 1'-0"
140
0.0078125
141
12.0
290
     0
  0
SCALE
  5
5A
102
{ACAD_REACTORS
330
47
102
}
330
47
100
AcDbScale
 70
     0
300
1/64" = 1'-0"
140
0.015625
141
12.0
290
     0
  0
SCALE
  5
5B
102
{ACAD_REACTORS
330
47
102
}
330
47
100
AcDbScale
 70
     0
300
1/32" = 1'-0"
140
0.03125
141
12.0
290
     0
  0
SCALE
  5
5C
102
{ACAD_REACTORS
330
47
102
}
330
47
100
AcDbScale
 70
     0
300
1/16" = 1'-0"
140
0.0625
141
12.0
290
     0
  0
SCALE
  5
5D
102
{ACAD_REACTORS
330
47
102
}
330
47
100
AcDbScale
 70
     0
300
3/32" = 1'-0"
140
0.09375
141
12.0
290
     0
  0
SCALE
  5
5E
102
{ACAD_REACTORS
330
47
102
}
330
47
100
AcDbScale
 70
     0
300
1/8" = 1'-0"
140
0.125
141
12.0
290
     0
  0
SCALE
  5
5F
102
{ACAD_REACTORS
330
47
102
}
330
47
100
AcDbScale
 70
     0
300
3/16" = 1'-0"
140
0.1875
141
12.0
290
     0
  0
SCALE
  5
60
102
{ACAD_REACTORS
330
47
102
}
330
47
100
AcDbScale
 70
     0
300
1/4" = 1'-0"
140
0.25
141
12.0
290
     0
  0
SCALE
  5
61
102
{ACAD_REACTORS
330
47
102
}
330
47
100
AcDbScale
 70
     0
300
3/8" = 1'-0"
140
0.375
141
12.0
290
     0
  0
SCALE
  5
62
102
{ACAD_REACTORS
330
47
102
}
330
47
100
AcDbScale
 70
     0
300
1/2" = 1'-0"
140
0.5
141
12.0
290
     0
  0
SCALE
  5
63
102
{ACAD_REACTORS
330
47
102
}
330
47
100
AcDbScale
 70
     0
300
3/4" = 1'-0"
140
0.75
141
12.0
290
     0
  0
SCALE
  5
64
102
{ACAD_REACTORS
330
47
102
}
330
47
100
AcDbScale
 70
     0
300
1" = 1'-0"
140
1.0
141
12.0
290
     0
  0
SCALE
  5
65
102
{ACAD_REACTORS
330
47
102
}
330
47
100
AcDbScale
 70
     0
300
1-1/2" = 1'-0"
140
1.5
141
12.0
290
     0
  0
SCALE
  5
66
102
{ACAD_REACTORS
330
47
102
}
330
47
100
AcDbScale
 70
     0
300
3" = 1'-0"
140
3.0
141
12.0
290
     0
  0
SCALE
  5
67
102
{ACAD_REACTORS
330
47
102
}
330
47
100
AcDbScale
 70
     0
300
6" = 1'-0"
140
6.0
141
12.0
290
     0
  0
SCALE
  5
68
102
{ACAD_REACTORS
330
47
102
}
330
47
100
AcDbScale
 70
     0
300
1'-0" = 1'-0"
140
12.0
141
12.0
290
     0
  0
ENDSEC
  0
EOF
