  0
SECTION
  2
HEADER
  9
$ACADVER
  1
AC1015
  9
$ACADMAINTVER
 70
     6
  9
$DWGCODEPAGE
  3
ANSI_1250
  9
$INSBASE
 10
0.0
 20
0.0
 30
0.0
  9
$EXTMIN
 10
0.0
 20
0.0
 30
0.0
  9
$EXTMAX
 10
20000.0
 20
10000.0
 30
0.0
  9
$LIMMIN
 10
0.0
 20
0.0
  9
$LIMMAX
 10
20000.0
 20
10000.0
  9
$ORTHOMODE
 70
     0
  9
$REGENMODE
 70
     1
  9
$FILLMODE
 70
     1
  9
$QTEXTMODE
 70
     0
  9
$MIRRTEXT
 70
     1
  9
$LTSCALE
 40
1.0
  9
$ATTMODE
 70
     1
  9
$TEXTSIZE
 40
2.0
  9
$TRACEWID
 40
1.0
  9
$TEXTSTYLE
  7
Standard
  9
$CLAYER
  8
0
  9
$CELTYPE
  6
ByLayer
  9
$CECOLOR
 62
   256
  9
$CELTSCALE
 40
1.0
  9
$DISPSILH
 70
     0
  9
$DIMSCALE
 40
1.0
  9
$DIMASZ
 40
2.0
  9
$DIMEXO
 40
1.0
  9
$DIMDLI
 40
3.75
  9
$DIMRND
 40
0.0
  9
$DIMDLE
 40
0.0
  9
$DIMEXE
 40
1.0
  9
$DIMTP
 40
0.0
  9
$DIMTM
 40
0.0
  9
$DIMTXT
 40
2.0
  9
$DIMCEN
 40
2.5
  9
$DIMTSZ
 40
0.0
  9
$DIMTOL
 70
     0
  9
$DIMLIM
 70
     0
  9
$DIMTIH
 70
     1
  9
$DIMTOH
 70
     1
  9
$DIMSE1
 70
     0
  9
$DIMSE2
 70
     0
  9
$DIMTAD
 70
     1
  9
$DIMZIN
 70
     0
  9
$DIMBLK
  1

  9
$DIMASO
 70
     1
  9
$DIMSHO
 70
     1
  9
$DIMPOST
  1

  9
$DIMAPOST
  1

  9
$DIMALT
 70
     0
  9
$DIMALTD
 70
     3
  9
$DIMALTF
 40
0.0393700787
  9
$DIMLFAC
 40
1.0
  9
$DIMTOFL
 70
     1
  9
$DIMTVP
 40
0.0
  9
$DIMTIX
 70
     0
  9
$DIMSOXD
 70
     0
  9
$DIMSAH
 70
     0
  9
$DIMBLK1
  1

  9
$DIMBLK2
  1

  9
$DIMSTYLE
  2
ISO-25
  9
$DIMCLRD
 70
     0
  9
$DIMCLRE
 70
     0
  9
$DIMCLRT
 70
     0
  9
$DIMTFAC
 40
1.0
  9
$DIMGAP
 40
1.524
  9
$DIMJUST
 70
     0
  9
$DIMSD1
 70
     0
  9
$DIMSD2
 70
     0
  9
$DIMTOLJ
 70
     0
  9
$DIMTZIN
 70
     0
  9
$DIMALTZ
 70
     0
  9
$DIMALTTZ
 70
     0
  9
$DIMUPT
 70
     0
  9
$DIMDEC
 70
     2
  9
$DIMTDEC
 70
     0
  9
$DIMALTU
 70
     2
  9
$DIMALTTD
 70
     3
  9
$DIMTXSTY
  7
Standard
  9
$DIMAUNIT
 70
     0
  9
$DIMADEC
 70
     2
  9
$DIMALTRND
 40
0.0
  9
$DIMAZIN
 70
     0
  9
$DIMDSEP
 70
    44
  9
$DIMATFIT
 70
     3
  9
$DIMFRAC
 70
     0
  9
$DIMLDRBLK
  1

  9
$DIMLUNIT
 70
     2
  9
$DIMLWD
 70
    -2
  9
$DIMLWE
 70
    -2
  9
$DIMTMOVE
 70
     0
  9
$LUNITS
 70
     2
  9
$LUPREC
 70
     3
  9
$SKETCHINC
 40
1.0
  9
$FILLETRAD
 40
10.0
  9
$AUNITS
 70
     0
  9
$AUPREC
 70
     2
  9
$MENU
  1
.
  9
$ELEVATION
 40
0.0
  9
$PELEVATION
 40
0.0
  9
$THICKNESS
 40
0.0
  9
$LIMCHECK
 70
     0
  9
$CHAMFERA
 40
0.0
  9
$CHAMFERB
 40
0.0
  9
$CHAMFERC
 40
0.0
  9
$CHAMFERD
 40
0.0
  9
$SKPOLY
 70
     0
  9
$TDCREATE
 40
2458677.412253912
  9
$TDUCREATE
 40
2458677.328920579
  9
$TDUPDATE
 40
2458677.412254317
  9
$TDUUPDATE
 40
2458677.328920984
  9
$TDINDWG
 40
0.0000000116
  9
$TDUSRTIMER
 40
0.0000000116
  9
$USRTIMER
 70
     1
  9
$ANGBASE
 50
0.0
  9
$ANGDIR
 70
     0
  9
$PDMODE
 70
     0
  9
$PDSIZE
 40
-1.0
  9
$PLINEWID
 40
0.0
  9
$SPLFRAME
 70
     0
  9
$SPLINETYPE
 70
     6
  9
$SPLINESEGS
 70
     8
  9
$HANDSEED
  5
2AA
  9
$SURFTAB1
 70
     6
  9
$SURFTAB2
 70
     6
  9
$SURFTYPE
 70
     6
  9
$SURFU
 70
     6
  9
$SURFV
 70
     6
  9
$UCSBASE
  2

  9
$UCSNAME
  2

  9
$UCSORG
 10
0.0
 20
0.0
 30
0.0
  9
$UCSXDIR
 10
1.0
 20
0.0
 30
0.0
  9
$UCSYDIR
 10
0.0
 20
1.0
 30
0.0
  9
$UCSORTHOREF
  2

  9
$UCSORTHOVIEW
 70
     0
  9
$UCSORGTOP
 10
0.0
 20
0.0
 30
0.0
  9
$UCSORGBOTTOM
 10
0.0
 20
0.0
 30
0.0
  9
$UCSORGLEFT
 10
0.0
 20
0.0
 30
0.0
  9
$UCSORGRIGHT
 10
0.0
 20
0.0
 30
0.0
  9
$UCSORGFRONT
 10
0.0
 20
0.0
 30
0.0
  9
$UCSORGBACK
 10
0.0
 20
0.0
 30
0.0
  9
$PUCSBASE
  2

  9
$PUCSNAME
  2

  9
$PUCSORG
 10
0.0
 20
0.0
 30
0.0
  9
$PUCSXDIR
 10
1.0
 20
0.0
 30
0.0
  9
$PUCSYDIR
 10
0.0
 20
1.0
 30
0.0
  9
$PUCSORTHOREF
  2

  9
$PUCSORTHOVIEW
 70
     0
  9
$PUCSORGTOP
 10
0.0
 20
0.0
 30
0.0
  9
$PUCSORGBOTTOM
 10
0.0
 20
0.0
 30
0.0
  9
$PUCSORGLEFT
 10
0.0
 20
0.0
 30
0.0
  9
$PUCSORGRIGHT
 10
0.0
 20
0.0
 30
0.0
  9
$PUCSORGFRONT
 10
0.0
 20
0.0
 30
0.0
  9
$PUCSORGBACK
 10
0.0
 20
0.0
 30
0.0
  9
$USERI1
 70
     0
  9
$USERI2
 70
     0
  9
$USERI3
 70
     0
  9
$USERI4
 70
     0
  9
$USERI5
 70
     0
  9
$USERR1
 40
0.0
  9
$USERR2
 40
0.0
  9
$USERR3
 40
0.0
  9
$USERR4
 40
0.0
  9
$USERR5
 40
0.0
  9
$WORLDVIEW
 70
     1
  9
$SHADEDGE
 70
     3
  9
$SHADEDIF
 70
    70
  9
$TILEMODE
 70
     1
  9
$MAXACTVP
 70
    64
  9
$PINSBASE
 10
0.0
 20
0.0
 30
0.0
  9
$PLIMCHECK
 70
     0
  9
$PEXTMIN
 10
1.0000000000E+20
 20
1.0000000000E+20
 30
1.0000000000E+20
  9
$PEXTMAX
 10
-1.0000000000E+20
 20
-1.0000000000E+20
 30
-1.0000000000E+20
  9
$PLIMMIN
 10
0.0
 20
0.0
  9
$PLIMMAX
 10
420.0
 20
297.0
  9
$UNITMODE
 70
     0
  9
$VISRETAIN
 70
     1
  9
$PLINEGEN
 70
     0
  9
$PSLTSCALE
 70
     1
  9
$TREEDEPTH
 70
  3020
  9
$CMLSTYLE
  2
Standard
  9
$CMLJUST
 70
     0
  9
$CMLSCALE
 40
20.0
  9
$PROXYGRAPHICS
 70
     1
  9
$MEASUREMENT
 70
     1
  9
$CELWEIGHT
370
    -1
  9
$ENDCAPS
280
     0
  9
$JOINSTYLE
280
     0
  9
$LWDISPLAY
290
     1
  9
$INSUNITS
 70
     4
  9
$HYPERLINKBASE
  1

  9
$STYLESHEET
  1

  9
$XEDIT
290
     1
  9
$CEPSNTYPE
380
     0
  9
$PSTYLEMODE
290
     1
  9
$FINGERPRINTGUID
  2
{547D0FD4-BBD3-4D54-8BED-342CF40D7261}
  9
$VERSIONGUID
  2
{FAEB1C32-E019-11D5-929B-00C0DF256EC4}
  9
$EXTNAMES
290
     1
  9
$PSVPSCALE
 40
0.0
  9
$OLESTARTUP
290
     0
  0
ENDSEC
  0
SECTION
  2
CLASSES
  0
CLASS
  1
ACDBDICTIONARYWDFLT
  2
AcDbDictionaryWithDefault
  3
ObjectDBX Classes
 90
        0
280
     0
281
     0
  0
CLASS
  1
VISUALSTYLE
  2
AcDbVisualStyle
  3
ObjectDBX Classes
 90
     4095
280
     0
281
     0
  0
CLASS
  1
MATERIAL
  2
AcDbMaterial
  3
ObjectDBX Classes
 90
     1153
280
     0
281
     0
  0
CLASS
  1
SCALE
  2
AcDbScale
  3
ObjectDBX Classes
 90
     1153
280
     0
281
     0
  0
CLASS
  1
TABLESTYLE
  2
AcDbTableStyle
  3
ObjectDBX Classes
 90
     4095
280
     0
281
     0
  0
CLASS
  1
MLEADERSTYLE
  2
AcDbMLeaderStyle
  3
ACDB_MLEADERSTYLE_CLASS
 90
     4095
280
     0
281
     0
  0
CLASS
  1
SUN
  2
AcDbSun
  3
SCENEOE
 90
     1153
280
     0
281
     0
  0
CLASS
  1
ACDBPLACEHOLDER
  2
AcDbPlaceHolder
  3
ObjectDBX Classes
 90
        0
280
     0
281
     0
  0
CLASS
  1
LAYOUT
  2
AcDbLayout
  3
ObjectDBX Classes
 90
        0
280
     0
281
     0
  0
ENDSEC
  0
SECTION
  2
TABLES
  0
TABLE
  2
VPORT
  5
8
330
0
100
AcDbSymbolTable
 70
     1
  0
VPORT
  5
29
330
8
100
AcDbSymbolTableRecord
100
AcDbViewportTableRecord
  2
*Active
 70
     0
 10
0.0
 20
0.0
 11
1.0
 21
1.0
 12
10000.0
 22
5000.0
 13
0.0
 23
0.0
 14
10.0
 24
10.0
 15
10.0
 25
10.0
 16
0.0
 26
0.0
 36
1.0
 17
0.0
 27
0.0
 37
0.0
 40
10000.0
 41
2.0
 42
50.0
 43
0.0
 44
0.0
 50
0.0
 51
0.0
 71
     0
 72
  2000
 73
     1
 74
     3
 75
     0
 76
     0
 77
     0
 78
     0
281
     0
 65
     1
110
0.0
120
0.0
130
0.0
111
1.0
121
0.0
131
0.0
112
0.0
122
1.0
132
0.0
 79
     0
146
0.0
  0
ENDTAB
  0
TABLE
  2
LTYPE
  5
5
330
0
100
AcDbSymbolTable
 70
     6
  0
LTYPE
  5
14
330
5
100
AcDbSymbolTableRecord
100
AcDbLinetypeTableRecord
  2
ByBlock
 70
     0
  3

 72
    65
 73
     0
 40
0.0
  0
LTYPE
  5
15
330
5
100
AcDbSymbolTableRecord
100
AcDbLinetypeTableRecord
  2
ByLayer
 70
     0
  3

 72
    65
 73
     0
 40
0.0
  0
LTYPE
  5
16
330
5
100
AcDbSymbolTableRecord
100
AcDbLinetypeTableRecord
  2
Continuous
 70
     0
  3
Solid line
 72
    65
 73
     0
 40
0.0
  0
LTYPE
  5
6E
330
5
100
AcDbSymbolTableRecord
100
AcDbLinetypeTableRecord
  2
HIDDEN
 70
     0
  3
Hidden __ __ __ __ __ __ __ __ __ __ __ __ __ __
 72
    65
 73
     2
 40
1.905
 49
1.27
 74
     0
 49
-0.635
 74
     0
  0
LTYPE
  5
6F
330
5
100
AcDbSymbolTableRecord
100
AcDbLinetypeTableRecord
  2
PHANTOM
 70
     0
  3
Phantom ______  __  __  ______  __  __  ______
 72
    65
 73
     6
 40
12.7
 49
6.35
 74
     0
 49
-1.27
 74
     0
 49
1.27
 74
     0
 49
-1.27
 74
     0
 49
1.27
 74
     0
 49
-1.27
 74
     0
  0
LTYPE
  5
70
330
5
100
AcDbSymbolTableRecord
100
AcDbLinetypeTableRecord
  2
CENTER
 70
     0
  3
Center ____ _ ____ _ ____ _ ____ _ ____ _ ____
 72
    65
 73
     4
 40
10.16
 49
6.35
 74
     0
 49
-1.27
 74
     0
 49
1.27
 74
     0
 49
-1.27
 74
     0
  0
LTYPE
  5
71
330
5
100
AcDbSymbolTableRecord
100
AcDbLinetypeTableRecord
  2
CENTERX2
 70
     0
  3
Center (2x) ________  __  ________  __  _____
 72
    65
 73
     4
 40
20.32
 49
12.7
 74
     0
 49
-2.54
 74
     0
 49
2.54
 74
     0
 49
-2.54
 74
     0
  0
LTYPE
  5
72
330
5
100
AcDbSymbolTableRecord
100
AcDbLinetypeTableRecord
  2
DOT2
 70
     0
  3
Dot (.5x) ........................................
 72
    65
 73
     2
 40
0.635
 49
0.0
 74
     0
 49
-0.635
 74
     0
  0
ENDTAB
  0
TABLE
  2
LAYER
  5
2
330
0
100
AcDbSymbolTable
 70
    13
  0
LAYER
  5
10
330
2
100
AcDbSymbolTableRecord
100
AcDbLayerTableRecord
  2
0
 70
     0
 62
     7
  6
Continuous
370
    -3
390
F
  0
LAYER
  5
73
330
2
100
AcDbSymbolTableRecord
100
AcDbLayerTableRecord
  2
FORMAT
 70
     0
 62
     7
  6
Continuous
370
    -3
390
F
  0
LAYER
  5
74
330
2
100
AcDbSymbolTableRecord
100
AcDbLayerTableRecord
  2
OSA
 70
     0
 62
     7
  6
CENTER
370
    -3
390
F
  0
LAYER
  5
75
330
2
100
AcDbSymbolTableRecord
100
AcDbLayerTableRecord
  2
0_35
 70
     0
 62
     7
  6
Continuous
370
    35
390
F
  0
LAYER
  5
76
330
2
100
AcDbSymbolTableRecord
100
AcDbLayerTableRecord
  2
0_5
 70
     0
 62
     7
  6
Continuous
370
    50
390
F
  0
LAYER
  5
77
330
2
100
AcDbSymbolTableRecord
100
AcDbLayerTableRecord
  2
0_25
 70
     0
 62
     7
  6
Continuous
370
    25
390
F
  0
LAYER
  5
78
330
2
100
AcDbSymbolTableRecord
100
AcDbLayerTableRecord
  2
0_18
 70
     0
 62
     7
  6
Continuous
370
    -3
390
F
  0
LAYER
  5
79
330
2
100
AcDbSymbolTableRecord
100
AcDbLayerTableRecord
  2
SLD-0
 70
     0
 62
   179
  6
Continuous
370
    -3
390
F
  0
LAYER
  5
7A
330
2
100
AcDbSymbolTableRecord
100
AcDbLayerTableRecord
  2
KOTY
 70
     0
 62
     7
  6
Continuous
370
    -3
390
F
  0
LAYER
  5
7B
330
2
100
AcDbSymbolTableRecord
100
AcDbLayerTableRecord
  2
SILNA
 70
     0
 62
   179
  6
Continuous
370
    -3
390
F
  0
LAYER
  5
7C
330
2
100
AcDbSymbolTableRecord
100
AcDbLayerTableRecord
  2
0_18_1
 70
     0
 62
   179
  6
Continuous
370
    -3
390
F
  0
LAYER
  5
7D
330
2
100
AcDbSymbolTableRecord
100
AcDbLayerTableRecord
  2
0_35_1
 70
     0
 62
   179
  6
Continuous
370
    35
390
F
  0
LAYER
  5
7E
330
2
100
AcDbSymbolTableRecord
100
AcDbLayerTableRecord
  2
0_5_1
 70
     0
 62
   179
  6
Continuous
370
    50
390
F
  0
ENDTAB
  0
TABLE
  2
STYLE
  5
3
330
0
100
AcDbSymbolTable
 70
     1
  0
STYLE
  5
11
330
3
100
AcDbSymbolTableRecord
100
AcDbTextStyleTableRecord
  2
Standard
 70
     0
 40
0.0
 41
1.0
 50
0.0
 71
     0
 42
2.0
  3
txt
  4

  0
ENDTAB
  0
TABLE
  2
VIEW
  5
6
330
0
100
AcDbSymbolTable
 70
     0
  0
ENDTAB
  0
TABLE
  2
UCS
  5
7
330
0
100
AcDbSymbolTable
 70
     0
  0
ENDTAB
  0
TABLE
  2
APPID
  5
9
330
0
100
AcDbSymbolTable
 70
     1
  0
APPID
  5
12
330
9
100
AcDbSymbolTableRecord
100
AcDbRegAppTableRecord
  2
ACAD
 70
     0
  0
ENDTAB
  0
TABLE
  2
DIMSTYLE
  5
A
330
0
100
AcDbSymbolTable
 70
     1
100
AcDbDimStyleTable
  0
DIMSTYLE
105
27
330
A
100
AcDbSymbolTableRecord
100
AcDbDimStyleTableRecord
  2
ISO-25
 70
     0
 41
2.5
 42
0.625
 43
3.75
 44
1.25
 73
     0
 74
     0
 77
     1
 78
     8
140
2.5
141
2.5
143
0.0393700787
147
0.625
171
     3
172
     1
178
     0
271
     2
272
     2
274
     3
278
    44
283
     0
284
     8
340
11
  0
ENDTAB
  0
TABLE
  2
BLOCK_RECORD
  5
1
330
0
100
AcDbSymbolTable
 70
     1
  0
BLOCK_RECORD
  5
1F
330
1
100
AcDbSymbolTableRecord
100
AcDbBlockTableRecord
  2
*Model_Space
340
22
  0
BLOCK_RECORD
  5
1B
330
1
100
AcDbSymbolTableRecord
100
AcDbBlockTableRecord
  2
*Paper_Space
340
1E
  0
BLOCK_RECORD
  5
23
330
1
100
AcDbSymbolTableRecord
100
AcDbBlockTableRecord
  2
*Paper_Space0
340
26
  0
ENDTAB
  0
ENDSEC
  0
SECTION
  2
BLOCKS
  0
BLOCK
  5
20
330
1F
100
AcDbEntity
  8
0
100
AcDbBlockBegin
  2
*Model_Space
 70
     0
 10
0.0
 20
0.0
 30
0.0
  3
*Model_Space
  1

  0
ENDBLK
  5
21
330
1F
100
AcDbEntity
  8
0
100
AcDbBlockEnd
  0
BLOCK
  5
1C
330
1B
100
AcDbEntity
 67
     1
  8
0
100
AcDbBlockBegin
  2
*Paper_Space
 70
     0
 10
0.0
 20
0.0
 30
0.0
  3
*Paper_Space
  1

  0
ENDBLK
  5
1D
330
1B
100
AcDbEntity
 67
     1
  8
0
100
AcDbBlockEnd
  0
BLOCK
  5
24
330
23
100
AcDbEntity
  8
0
100
AcDbBlockBegin
  2
*Paper_Space0
 70
     0
 10
0.0
 20
0.0
 30
0.0
  3
*Paper_Space0
  1

  0
ENDBLK
  5
25
330
23
100
AcDbEntity
  8
0
100
AcDbBlockEnd
  0
ENDSEC
  0
SECTION
  2
ENTITIES
  0
LINE
  5
7F
330
1F
100
AcDbEntity
  8
0
  6
Continuous
 62
     7
370
    25
100
AcDbLine
 10
6240.0187534883
 20
4986.1994574537
 30
0.0
 11
6246.9125410214
 21
4918.8937733641
 31
0.0
  0
LINE
  5
80
330
1F
100
AcDbEntity
  8
0
  6
Continuous
 62
     7
370
    25
100
AcDbLine
 10
6301.1249696508
 20
4918.8937733641
 30
0.0
 11
6308.0187571838
 21
4986.1994574537
 31
0.0
  0
LINE
  5
81
330
1F
100
AcDbEntity
  8
0
  6
Continuous
 62
     7
370
    25
100
AcDbLine
 10
6308.0187571838
 20
4986.1994574537
 30
0.0
 11
6301.3281972751
 21
5043.5470978489
 31
0.0
  0
LINE
  5
82
330
1F
100
AcDbEntity
  8
0
  6
Continuous
 62
     7
370
    25
100
AcDbLine
 10
6246.7093133971
 20
5043.5470978489
 30
0.0
 11
6240.0187534883
 21
4986.1994574537
 31
0.0
  0
ARC
  5
83
330
1F
100
AcDbEntity
  8
0
  6
Continuous
 62
     7
370
    25
100
AcDbCircle
 10
6249.6891029982
 20
5043.1994545927
 30
0.0
 40
3.0
100
AcDbArc
 50
90.0
 51
173.345574954
  0
ARC
  5
84
330
1F
100
AcDbEntity
  8
0
  6
Continuous
 62
     7
370
    25
100
AcDbCircle
 10
6298.3484076739
 20
5043.1994545927
 30
0.0
 40
2.999999999999904
100
AcDbArc
 50
6.654425046
 51
90.0
  0
ARC
  5
85
330
1F
100
AcDbEntity
  8
0
  6
Continuous
 62
     7
370
    25
100
AcDbCircle
 10
6249.8969274699
 20
4919.1994545927
 30
0.0
 40
3.000000000000332
100
AcDbArc
 50
185.8481280261
 51
270.0
  0
ARC
  5
86
330
1F
100
AcDbEntity
  8
0
  6
Continuous
 62
     7
370
    25
100
AcDbCircle
 10
6298.1405832023
 20
4919.1994545927
 30
0.0
 40
3.0
100
AcDbArc
 50
270.0
 51
354.1518719739
  0
LINE
  5
87
330
1F
100
AcDbEntity
  8
0
  6
Continuous
 62
     7
370
    25
100
AcDbLine
 10
6299.0187557086
 20
5048.6994574537
 30
0.0
 11
6297.0187553808
 21
5052.6994506588
 31
0.0
  0
LINE
  5
88
330
1F
100
AcDbEntity
  8
0
  6
Continuous
 62
     7
370
    25
100
AcDbLine
 10
6251.0187552914
 20
5052.6994506588
 30
0.0
 11
6249.0187549635
 21
5048.6994574537
 31
0.0
  0
ARC
  5
89
330
1F
100
AcDbEntity
  8
0
  6
Continuous
 62
     7
370
    25
100
AcDbCircle
 10
6254.0187553361
 20
5059.6994545927
 30
0.0
 40
3.0
100
AcDbArc
 50
90.0
 51
180.0
  0
ARC
  5
8A
330
1F
100
AcDbEntity
  8
0
  6
Continuous
 62
     7
370
    25
100
AcDbCircle
 10
6294.0187553361
 20
5059.6994545927
 30
0.0
 40
3.0
100
AcDbArc
 50
0.0
 51
90.0
  0
LINE
  5
8B
330
1F
100
AcDbEntity
  8
0
  6
Continuous
 62
     7
370
    25
100
AcDbLine
 10
6251.0187552914
 20
5059.6994499435
 30
0.0
 11
6251.0187552914
 21
5052.6994506588
 31
0.0
  0
LINE
  5
8C
330
1F
100
AcDbEntity
  8
0
  6
Continuous
 62
     7
370
    25
100
AcDbLine
 10
6297.0187553808
 20
5052.6994506588
 30
0.0
 11
6297.0187553808
 21
5059.6994499435
 31
0.0
  0
LINE
  5
8D
330
1F
100
AcDbEntity
  8
0
  6
Continuous
 62
     7
370
    25
100
AcDbLine
 10
6258.0187545761
 20
5048.6994574537
 30
0.0
 11
6258.0187545761
 21
5046.1994598379
 31
0.0
  0
LINE
  5
8E
330
1F
100
AcDbEntity
  8
0
  6
Continuous
 62
     7
370
    25
100
AcDbLine
 10
6290.018756096
 20
5046.1994598379
 30
0.0
 11
6290.018756096
 21
5048.6994574537
 31
0.0
  0
LINE
  5
8F
330
1F
100
AcDbEntity
  8
0
  6
Continuous
 62
     7
370
    25
100
AcDbLine
 10
6239.018755187
 20
5132.999453949
 30
0.0
 11
6242.0187538161
 21
5125.9994546642
 31
0.0
  0
LINE
  5
90
330
1F
100
AcDbEntity
  8
0
  6
Continuous
 62
     7
370
    25
100
AcDbLine
 10
6306.018756856
 20
5125.9994546642
 30
0.0
 11
6309.0187554851
 21
5132.999453949
 31
0.0
  0
LINE
  5
91
330
1F
100
AcDbEntity
  8
0
  6
Continuous
 62
     7
370
    25
100
AcDbLine
 10
6242.0187538161
 20
5125.9994546642
 30
0.0
 11
6247.518755649
 21
5120.4994509687
 31
0.0
  0
LINE
  5
92
330
1F
100
AcDbEntity
  8
0
  6
Continuous
 62
     7
370
    25
100
AcDbLine
 10
6300.5187550231
 20
5120.4994509687
 30
0.0
 11
6306.018756856
 21
5125.9994546642
 31
0.0
  0
LINE
  5
93
330
1F
100
AcDbEntity
  8
0
  6
Continuous
 62
     7
370
    25
100
AcDbLine
 10
6244.5187551572
 20
5095.9994534721
 30
0.0
 11
6244.5187551572
 21
5092.9994473924
 31
0.0
  0
LINE
  5
94
330
1F
100
AcDbEntity
  8
0
  6
Continuous
 62
     7
370
    25
100
AcDbLine
 10
6303.5187555149
 20
5092.9994473924
 30
0.0
 11
6303.5187555149
 21
5095.9994534721
 31
0.0
  0
LINE
  5
95
330
1F
100
AcDbEntity
  8
0
  6
Continuous
 62
     7
370
    25
100
AcDbLine
 10
6247.518755649
 20
5120.4994509687
 30
0.0
 11
6247.518755649
 21
5095.9994534721
 31
0.0
  0
LINE
  5
96
330
1F
100
AcDbEntity
  8
0
  6
Continuous
 62
     7
370
    25
100
AcDbLine
 10
6300.5187550231
 20
5095.9994534721
 30
0.0
 11
6300.5187550231
 21
5120.4994509687
 31
0.0
  0
LINE
  5
97
330
1F
100
AcDbEntity
  8
0
  6
Continuous
 62
     7
370
    25
100
AcDbLine
 10
6244.0187560066
 20
5092.9994473924
 30
0.0
 11
6246.0187544718
 21
5088.9994541874
 31
0.0
  0
LINE
  5
98
330
1F
100
AcDbEntity
  8
0
  6
Continuous
 62
     7
370
    25
100
AcDbLine
 10
6302.0187562003
 20
5088.9994541874
 30
0.0
 11
6304.0187546655
 21
5092.9994473924
 31
0.0
  0
LINE
  5
99
330
1F
100
AcDbEntity
  8
0
  6
Continuous
 62
     7
370
    25
100
AcDbLine
 10
6246.0187544718
 20
5088.9994541874
 30
0.0
 11
6246.0187544718
 21
5081.9994549026
 31
0.0
  0
LINE
  5
9A
330
1F
100
AcDbEntity
  8
0
  6
Continuous
 62
     7
370
    25
100
AcDbLine
 10
6302.0187562003
 20
5081.9994549026
 30
0.0
 11
6302.0187562003
 21
5088.9994541874
 31
0.0
  0
ARC
  5
9B
330
1F
100
AcDbEntity
  8
0
  6
Continuous
 62
     7
370
    25
100
AcDbCircle
 10
6249.0187553361
 20
5081.9994545927
 30
0.0
 40
3.0
100
AcDbArc
 50
180.0
 51
270.0
  0
ARC
  5
9C
330
1F
100
AcDbEntity
  8
0
  6
Continuous
 62
     7
370
    25
100
AcDbCircle
 10
6299.0187553361
 20
5081.9994545927
 30
0.0
 40
2.999999999999091
100
AcDbArc
 50
270.0
 51
0.0
  0
LINE
  5
9D
330
1F
100
AcDbEntity
  8
0
  6
Continuous
 62
     7
370
    25
100
AcDbLine
 10
6258.0187545761
 20
5078.999448823
 30
0.0
 11
6258.0187545761
 21
5062.6994560232
 31
0.0
  0
LINE
  5
9E
330
1F
100
AcDbEntity
  8
0
  6
Continuous
 62
     7
370
    25
100
AcDbLine
 10
6258.0187545761
 20
5048.6994574537
 30
0.0
 11
6258.0187545761
 21
5046.1994598379
 31
0.0
  0
LINE
  5
9F
330
1F
100
AcDbEntity
  8
0
  6
Continuous
 62
     7
370
    25
100
AcDbLine
 10
6290.018756096
 20
5046.1994598379
 30
0.0
 11
6290.018756096
 21
5048.6994574537
 31
0.0
  0
LINE
  5
A0
330
1F
100
AcDbEntity
  8
0
  6
Continuous
 62
     7
370
    25
100
AcDbLine
 10
6290.018756096
 20
5062.6994560232
 30
0.0
 11
6290.018756096
 21
5078.999448823
 31
0.0
  0
SPLINE
  5
A1
330
1F
100
AcDbEntity
  8
0
  6
Continuous
 62
     7
370
    25
100
AcDbSpline
210
0.0
220
0.0
230
1.0
 70
     8
 71
     3
 72
    11
 73
     7
 74
     0
 42
0.000000001
 43
0.00000001
 40
0.0
 40
0.0
 40
0.0
 40
0.0
 40
0.2461637525053772
 40
0.4812662746094348
 40
0.7268247218437127
 40
1.0
 40
1.0
 40
1.0
 40
1.0
 10
6462.941026468526
 20
5156.279247509466
 30
0.0
 10
6463.491462868012
 20
5156.686377547875
 30
0.0
 10
6464.56760211554
 20
5157.482343464356
 30
0.0
 10
6466.192094455879
 20
5158.740383844688
 30
0.0
 10
6467.697106495339
 20
5159.929516837784
 30
0.0
 10
6468.525140875008
 20
5160.609748925313
 30
0.0
 10
6468.961199898969
 20
5160.967972384916
 30
0.0
  0
LINE
  5
A2
330
1F
100
AcDbEntity
  8
0
  6
Continuous
 62
     7
370
    25
100
AcDbLine
 10
6240.0187534883
 20
4986.1994574537
 30
0.0
 11
6308.0187571838
 21
4986.1994574537
 31
0.0
  0
LINE
  5
A3
330
1F
100
AcDbEntity
  8
0
  6
Continuous
 62
     7
370
    25
100
AcDbLine
 10
6249.6891023263
 20
5046.1994598379
 30
0.0
 11
6298.3484083458
 21
5046.1994598379
 31
0.0
  0
LINE
  5
A4
330
1F
100
AcDbEntity
  8
0
  6
Continuous
 62
     7
370
    25
100
AcDbLine
 10
6249.8969269588
 20
4916.1994646063
 30
0.0
 11
6298.1405837133
 21
4916.1994646063
 31
0.0
  0
LINE
  5
A5
330
1F
100
AcDbEntity
  8
0
  6
Continuous
 62
     7
370
    25
100
AcDbLine
 10
6251.0187552914
 20
5052.6994506588
 30
0.0
 11
6297.0187553808
 21
5052.6994506588
 31
0.0
  0
LINE
  5
A6
330
1F
100
AcDbEntity
  8
0
  6
Continuous
 62
     7
370
    25
100
AcDbLine
 10
6249.0187549635
 20
5048.6994574537
 30
0.0
 11
6299.0187557086
 21
5048.6994574537
 31
0.0
  0
LINE
  5
A7
330
1F
100
AcDbEntity
  8
0
  6
Continuous
 62
     7
370
    25
100
AcDbLine
 10
6254.0187557831
 20
5062.6994560232
 30
0.0
 11
6294.018754889
 21
5062.6994560232
 31
0.0
  0
LINE
  5
A8
330
1F
100
AcDbEntity
  8
0
  6
Continuous
 62
     7
370
    25
100
AcDbLine
 10
6290.5187552466
 20
5046.1994598379
 30
0.0
 11
6290.018756096
 21
5046.56573038
 31
0.0
  0
LINE
  5
A9
330
1F
100
AcDbEntity
  8
0
  6
Continuous
 62
     7
370
    25
100
AcDbLine
 10
6258.0187545761
 20
5046.56573038
 30
0.0
 11
6257.5187554255
 21
5046.1994598379
 31
0.0
  0
ARC
  5
AA
330
1F
100
AcDbEntity
  8
0
  6
Continuous
 62
     7
370
    25
100
AcDbCircle
 10
6274.0187553361
 20
5024.1994545927
 30
0.0
 40
40.0
100
AcDbArc
 50
0.0
 51
54.9003678046
  0
ARC
  5
AB
330
1F
100
AcDbEntity
  8
0
  6
Continuous
 62
     7
370
    25
100
AcDbCircle
 10
6274.0187553361
 20
5024.1994545927
 30
0.0
 40
40.00000000000083
100
AcDbArc
 50
125.0996321954
 51
216.1070114058
  0
ARC
  5
AC
330
1F
100
AcDbEntity
  8
0
  6
Continuous
 62
     7
370
    25
100
AcDbCircle
 10
6274.0187553361
 20
5024.1994545927
 30
0.0
 40
40.00000000000063
100
AcDbArc
 50
323.8929885942
 51
0.0
  0
LINE
  5
AD
330
1F
100
AcDbEntity
  8
0
  6
Continuous
 62
     7
370
    25
100
AcDbLine
 10
6242.0187538161
 20
5125.9994546642
 30
0.0
 11
6306.018756856
 21
5125.9994546642
 31
0.0
  0
LINE
  5
AE
330
1F
100
AcDbEntity
  8
0
  6
Continuous
 62
     7
370
    25
100
AcDbLine
 10
6247.518755649
 20
5120.4994509687
 30
0.0
 11
6300.5187550231
 21
5120.4994509687
 31
0.0
  0
LINE
  5
AF
330
1F
100
AcDbEntity
  8
0
  6
Continuous
 62
     7
370
    25
100
AcDbLine
 10
6244.5187551572
 20
5095.9994534721
 30
0.0
 11
6303.5187555149
 21
5095.9994534721
 31
0.0
  0
LINE
  5
B0
330
1F
100
AcDbEntity
  8
0
  6
Continuous
 62
     7
370
    25
100
AcDbLine
 10
6246.0187544718
 20
5088.9994541874
 30
0.0
 11
6302.0187562003
 21
5088.9994541874
 31
0.0
  0
LINE
  5
B1
330
1F
100
AcDbEntity
  8
0
  6
Continuous
 62
     7
370
    25
100
AcDbLine
 10
6244.0187560066
 20
5092.9994473924
 30
0.0
 11
6304.0187546655
 21
5092.9994473924
 31
0.0
  0
LINE
  5
B2
330
1F
100
AcDbEntity
  8
0
  6
Continuous
 62
     7
370
    25
100
AcDbLine
 10
6249.0187549635
 20
5078.999448823
 30
0.0
 11
6299.0187557086
 21
5078.999448823
 31
0.0
  0
LINE
  5
B3
330
1F
100
AcDbEntity
  8
0
  6
Continuous
 62
     7
370
    25
100
AcDbLine
 10
5978.5187450841
 20
5264.1994545927
 30
0.0
 11
5978.5187450841
 21
5509.1994593611
 31
0.0
  0
LINE
  5
B4
330
1F
100
AcDbEntity
  8
0
  6
Continuous
 62
     7
370
    25
100
AcDbLine
 10
5978.5187450841
 20
5509.1994593611
 30
0.0
 11
6569.5187655881
 21
5509.1994593611
 31
0.0
  0
LINE
  5
B5
330
1F
100
AcDbEntity
  8
0
  6
Continuous
 62
     7
370
    25
100
AcDbLine
 10
6569.5187655881
 20
5509.1994593611
 30
0.0
 11
6569.5187655881
 21
5264.1994545927
 31
0.0
  0
LINE
  5
B6
330
1F
100
AcDbEntity
  8
0
  6
Continuous
 62
     7
370
    25
100
AcDbLine
 10
5978.5187450841
 20
5264.1994545927
 30
0.0
 11
5981.5187660649
 21
5264.1994545927
 31
0.0
  0
LINE
  5
B7
330
1F
100
AcDbEntity
  8
0
  6
Continuous
 62
     7
370
    25
100
AcDbLine
 10
6566.5187446072
 20
5264.1994545927
 30
0.0
 11
6569.5187655881
 21
5264.1994545927
 31
0.0
  0
CIRCLE
  5
B8
330
1F
100
AcDbEntity
  8
0
  6
Continuous
 62
     7
370
    25
100
AcDbCircle
 10
5994.0187553361
 20
5492.1994545927
 30
0.0
 40
2.5
  0
CIRCLE
  5
B9
330
1F
100
AcDbEntity
  8
0
  6
Continuous
 62
     7
370
    25
100
AcDbCircle
 10
5994.0187553361
 20
5292.1994545927
 30
0.0
 40
2.5
  0
CIRCLE
  5
BA
330
1F
100
AcDbEntity
  8
0
  6
Continuous
 62
     7
370
    25
100
AcDbCircle
 10
6554.0187553361
 20
5292.1994545927
 30
0.0
 40
2.5
  0
CIRCLE
  5
BB
330
1F
100
AcDbEntity
  8
0
  6
Continuous
 62
     7
370
    25
100
AcDbCircle
 10
6554.0187553361
 20
5492.1994545927
 30
0.0
 40
2.499999999999091
  0
LINE
  5
BC
330
1F
100
AcDbEntity
  8
0
  6
Continuous
 62
     7
370
    25
100
AcDbLine
 10
6570.341965337
 20
5511.199448513
 30
0.0
 11
6570.341965337
 21
5510.1994613876
 31
0.0
  0
LWPOLYLINE
  5
BD
330
1F
100
AcDbEntity
  8
0
  6
Continuous
 62
     7
370
    25
100
AcDbPolyline
 90
        9
 70
   128
 43
0.0
 10
6569.5187655881
 20
5509.1994593611
 10
6569.6793703034
 20
5509.3945453634
 10
6569.8337761357
 20
5509.5821360817
 10
6569.9761120274
 20
5509.7550193539
 10
6570.1008645489
 20
5509.9065641632
 10
6570.2032355263
 20
5510.0309292545
 10
6570.2793208554
 20
5510.1233313551
 10
6570.3261701062
 20
5510.1802388897
 10
6570.341965337
 20
5510.1994613876
  0
LWPOLYLINE
  5
BE
330
1F
100
AcDbEntity
  8
0
  6
Continuous
 62
     7
370
    25
100
AcDbPolyline
 90
       10
 70
   128
 43
0.0
 10
6569.5187655881
 20
5509.1994593611
 10
6569.6616975262
 20
5509.5467458238
 10
6569.8003081277
 20
5509.8834971657
 10
6569.9303654626
 20
5510.1994613876
 10
6570.047905822
 20
5510.4850272407
 10
6570.1493827298
 20
5510.7315371504
 10
6570.2316967442
 20
5510.9315107336
 10
6570.2923444703
 20
5511.0788385143
 10
6570.329478164
 20
5511.1690650453
 10
6570.341965337
 20
5511.199448513
  0
LINE
  5
BF
330
1F
100
AcDbEntity
  8
0
  6
Continuous
 62
     7
370
    25
100
AcDbLine
 10
5976.5187410309
 20
5264.1994545927
 30
0.0
 11
5978.5187450841
 21
5264.1994545927
 31
0.0
  0
LINE
  5
C0
330
1F
100
AcDbEntity
  8
0
  6
Continuous
 62
     7
370
    25
100
AcDbLine
 10
5976.5187410309
 20
5264.1994545927
 30
0.0
 11
5976.5187410309
 21
5510.0226740112
 31
0.0
  0
LWPOLYLINE
  5
C1
330
1F
100
AcDbEntity
  8
0
  6
Continuous
 62
     7
370
    25
100
AcDbPolyline
 90
        9
 70
   128
 43
0.0
 10
5978.5187450841
 20
5509.1994593611
 10
5978.1285730794
 20
5509.3600640764
 10
5977.7533916428
 20
5509.5144848099
 10
5977.4076250985
 20
5509.6568058004
 10
5977.1045354798
 20
5509.7815583219
 10
5976.8558052971
 20
5509.8839442005
 10
5976.671001096
 20
5509.9600146284
 10
5976.5571860268
 20
5510.0068638792
 10
5976.5187410309
 20
5510.0226740112
  0
LWPOLYLINE
  5
C2
330
1F
100
AcDbEntity
  8
0
  6
Continuous
 62
     7
370
    25
100
AcDbPolyline
 90
       10
 70
   128
 43
0.0
 10
6571.5187696412
 20
5510.0226740112
 10
6571.4883712723
 20
5510.010171937
 10
6571.3981298401
 20
5509.9730382433
 10
6571.2508169606
 20
5509.9123905172
 10
6571.0508433774
 20
5509.8300765028
 10
6570.8043185666
 20
5509.7286144962
 10
6570.5187527135
 20
5509.6110592356
 10
6570.2027884915
 20
5509.4810168018
 10
6569.8660520508
 20
5509.3424062004
 10
6569.5187655881
 20
5509.1994593611
  0
LWPOLYLINE
  5
C3
330
1F
100
AcDbEntity
  8
0
  6
Continuous
 62
     7
370
    25
100
AcDbPolyline
 90
        9
 70
   128
 43
0.0
 10
6570.5187527135
 20
5510.0226740112
 10
6570.4995302155
 20
5510.0068638792
 10
6570.4426375821
 20
5509.9600146284
 10
6570.3502205803
 20
5509.8839442005
 10
6570.225855489
 20
5509.7815583219
 10
6570.0743106797
 20
5509.6568058004
 10
6569.9014274075
 20
5509.5144848099
 10
6569.7138515904
 20
5509.3600640764
 10
6569.5187655881
 20
5509.1994593611
  0
LINE
  5
C4
330
1F
100
AcDbEntity
  8
0
  6
Continuous
 62
     7
370
    25
100
AcDbLine
 10
6571.5187696412
 20
5510.0226740112
 30
0.0
 11
6570.5187527135
 21
5510.0226740112
 31
0.0
  0
LWPOLYLINE
  5
C5
330
1F
100
AcDbEntity
  8
0
  6
Continuous
 62
     7
370
    25
100
AcDbPolyline
 90
        9
 70
   128
 43
0.0
 10
5977.6955453351
 20
5511.199448513
 10
5977.7113405659
 20
5511.1610184183
 10
5977.7581898167
 20
5511.0472182503
 10
5977.8342751458
 20
5510.862399148
 10
5977.9366461232
 20
5510.6136689653
 10
5978.0613986447
 20
5510.3105942478
 10
5978.2037345364
 20
5509.9648277035
 10
5978.3581403687
 20
5509.5896313658
 10
5978.5187450841
 20
5509.1994593611
  0
LINE
  5
C6
330
1F
100
AcDbEntity
  8
0
  6
Continuous
 62
     7
370
    25
100
AcDbLine
 10
5977.6955453351
 20
5511.199448513
 30
0.0
 11
6570.341965337
 21
5511.199448513
 31
0.0
  0
LINE
  5
C7
330
1F
100
AcDbEntity
  8
0
  6
Continuous
 62
     7
370
    25
100
AcDbLine
 10
5976.5187410309
 20
5510.0226740112
 30
0.0
 11
5977.5187579587
 21
5510.0226740112
 31
0.0
  0
LWPOLYLINE
  5
C8
330
1F
100
AcDbEntity
  8
0
  6
Continuous
 62
     7
370
    25
100
AcDbPolyline
 90
        9
 70
   128
 43
0.0
 10
5978.5187450841
 20
5509.1994593611
 10
5978.3236590817
 20
5509.3600640764
 10
5978.1360832646
 20
5509.5144848099
 10
5977.9631999924
 20
5509.6568058004
 10
5977.8116551831
 20
5509.7815583219
 10
5977.6872900918
 20
5509.8839442005
 10
5977.59487309
 20
5509.9600146284
 10
5977.5379804566
 20
5510.0068638792
 10
5977.5187579587
 20
5510.0226740112
  0
LWPOLYLINE
  5
C9
330
1F
100
AcDbEntity
  8
0
  6
Continuous
 62
     7
370
    25
100
AcDbPolyline
 90
       10
 70
   128
 43
0.0
 10
5977.6955453351
 20
5510.1994613876
 10
5977.7080325081
 20
5510.1842622032
 10
5977.7451662018
 20
5510.1391414871
 10
5977.8058139279
 20
5510.0654850473
 10
5977.8881279423
 20
5509.9654982557
 10
5977.9896048501
 20
5509.8422358503
 10
5978.1071452096
 20
5509.6994529238
 10
5978.2372025445
 20
5509.5414708128
 10
5978.3758131459
 20
5509.3731025925
 10
5978.5187450841
 20
5509.1994593611
  0
LINE
  5
CA
330
1F
100
AcDbEntity
  8
0
  6
Continuous
 62
     7
370
    25
100
AcDbLine
 10
5977.6955453351
 20
5511.199448513
 30
0.0
 11
5977.6955453351
 21
5510.1994613876
 31
0.0
  0
LINE
  5
CB
330
1F
100
AcDbEntity
  8
0
  6
Continuous
 62
     7
370
    25
100
AcDbLine
 10
6571.5187696412
 20
5510.0226740112
 30
0.0
 11
6571.5187696412
 21
5264.1994545927
 31
0.0
  0
LINE
  5
CC
330
1F
100
AcDbEntity
  8
0
  6
Continuous
 62
     7
370
    25
100
AcDbLine
 10
6569.5187655881
 20
5264.1994545927
 30
0.0
 11
6571.5187696412
 21
5264.1994545927
 31
0.0
  0
SPLINE
  5
CD
330
1F
100
AcDbEntity
  8
0
  6
Continuous
 62
     7
370
    25
100
AcDbSpline
210
0.0
220
0.0
230
1.0
 70
     8
 71
     3
 72
    11
 73
     7
 74
     0
 42
0.000000001
 43
0.00000001
 40
0.0
 40
0.0
 40
0.0
 40
0.0
 40
0.2500036365750098
 40
0.5000059899931042
 40
0.750027187765987
 40
1.0
 40
1.0
 40
1.0
 40
1.0
 10
6559.518745322476
 20
5223.406750964151
 30
0.0
 10
6559.515592937309
 20
5223.384740728879
 30
0.0
 10
6559.509288183152
 20
5223.340720371301
 30
0.0
 10
6559.46877551936
 20
5223.296861196216
 30
0.0
 10
6559.428206262756
 20
5223.284386720777
 30
0.0
 10
6559.42190757165
 20
5223.290851305032
 30
0.0
 10
6559.418758530865
 20
5223.294083284364
 30
0.0
  0
LINE
  5
CE
330
1F
100
AcDbEntity
  8
0
  6
Continuous
 62
     7
370
    25
100
AcDbLine
 10
6559.5187453225
 20
5223.4067509642
 30
0.0
 11
6561.1187426045
 21
5223.4067509642
 31
0.0
  0
SPLINE
  5
CF
330
1F
100
AcDbEntity
  8
0
  6
Continuous
 62
     7
370
    25
100
AcDbSpline
210
0.0
220
0.0
230
1.0
 70
     8
 71
     3
 72
    15
 73
    11
 74
     0
 42
0.000000001
 43
0.00000001
 40
0.0
 40
0.0
 40
0.0
 40
0.0
 40
0.1249997981274815
 40
0.2500013440543855
 40
0.3749984559610165
 40
0.4999974711671533
 40
0.6250021034649965
 40
0.7499986136372621
 40
0.8750004303331456
 40
1.0
 40
1.0
 40
1.0
 40
1.0
 10
6561.118742604504
 20
5223.406750964151
 30
0.0
 10
6561.09394638615
 20
5223.193347385887
 30
0.0
 10
6561.04435360273
 20
5222.766537245462
 30
0.0
 10
6560.662773766061
 20
5222.221664542739
 30
0.0
 10
6560.117394016203
 20
5221.852894691079
 30
0.0
 10
6559.468757484788
 20
5221.714276615402
 30
0.0
 10
6558.820119757289
 20
5221.824722187829
 30
0.0
 10
6558.274727893784
 20
5222.1653320466
 30
0.0
 10
6557.893151108176
 20
5222.682035281859
 30
0.0
 10
6557.843557720033
 20
5223.090068506006
 30
0.0
 10
6557.818761248837
 20
5223.294083284364
 30
0.0
  0
LINE
  5
D0
330
1F
100
AcDbEntity
  8
0
  6
Continuous
 62
     7
370
    25
100
AcDbLine
 10
6559.4187585309
 20
5223.2940832844
 30
0.0
 11
6557.8187612488
 21
5223.2940832844
 31
0.0
  0
ARC
  5
D1
330
1F
100
AcDbEntity
  8
0
  6
Continuous
 62
     7
370
    25
100
AcDbCircle
 10
6559.4979328926
 20
5130.8899683972
 30
0.0
 40
1.621034554565224
100
AcDbArc
 50
270.7356395673
 51
359.0456979832
  0
ARC
  5
D2
330
1F
100
AcDbEntity
  8
0
  6
Continuous
 62
     7
370
    25
100
AcDbCircle
 10
6559.4434377686
 20
5130.8922620131
 30
0.0
 40
1.624940554729559
100
AcDbArc
 50
181.0328934387
 51
272.6563132247
  0
LINE
  5
D3
330
1F
100
AcDbEntity
  8
0
  6
Continuous
 62
     7
370
    25
100
AcDbLine
 10
6557.8187612488
 20
5130.8629701605
 30
0.0
 11
6557.8187612488
 21
5223.2940832844
 31
0.0
  0
LINE
  5
D4
330
1F
100
AcDbEntity
  8
0
  6
Continuous
 62
     7
370
    25
100
AcDbLine
 10
6561.1187426045
 20
5130.8629701605
 30
0.0
 11
6561.1187426045
 21
5223.4067509642
 31
0.0
  0
ARC
  5
D5
330
1F
100
AcDbEntity
  8
0
  6
Continuous
 62
     7
370
    25
100
AcDbCircle
 10
6558.5187553359
 20
5234.0994545925
 30
0.0
 40
2.599999999999584
100
AcDbArc
 50
0.0
 51
53.8710725343
  0
LINE
  5
D6
330
1F
100
AcDbEntity
  8
0
  6
Continuous
 62
     7
370
    25
100
AcDbLine
 10
6559.5187453225
 20
5234.0994554331
 30
0.0
 11
6561.1187426045
 21
5234.0994554331
 31
0.0
  0
ARC
  5
D7
330
1F
100
AcDbEntity
  8
0
  6
Continuous
 62
     7
370
    25
100
AcDbCircle
 10
6558.5187553359
 20
5234.0994545925
 30
0.0
 40
1.0
100
AcDbArc
 50
0.0
 51
90.0
  0
LINE
  5
D8
330
1F
100
AcDbEntity
  8
0
  6
Continuous
 62
     7
370
    25
100
AcDbLine
 10
6559.5187453225
 20
5234.0994554331
 30
0.0
 11
6559.5187453225
 21
5223.4067509642
 31
0.0
  0
LINE
  5
D9
330
1F
100
AcDbEntity
  8
0
  6
Continuous
 62
     7
370
    25
100
AcDbLine
 10
6561.1187426045
 20
5234.0994554331
 30
0.0
 11
6561.1187426045
 21
5223.4067509642
 31
0.0
  0
LINE
  5
DA
330
1F
100
AcDbEntity
  8
0
  6
Continuous
 62
     7
370
    25
100
AcDbLine
 10
6558.5187581971
 20
5235.0994537344
 30
0.0
 11
6529.5187441304
 21
5235.0994537344
 31
0.0
  0
LINE
  5
DB
330
1F
100
AcDbEntity
  8
0
  6
Continuous
 62
     7
370
    25
100
AcDbLine
 10
6529.5187441304
 20
5236.1994537284
 30
0.0
 11
6529.5187441304
 21
5235.0994537344
 31
0.0
  0
LINE
  5
DC
330
1F
100
AcDbEntity
  8
0
  6
Continuous
 62
     7
370
    25
100
AcDbLine
 10
6559.4187585309
 20
5231.3638667335
 30
0.0
 11
6557.8187612488
 21
5231.3638667335
 31
0.0
  0
LINE
  5
DD
330
1F
100
AcDbEntity
  8
0
  6
Continuous
 62
     7
370
    25
100
AcDbLine
 10
6559.4187585309
 20
5223.2940832844
 30
0.0
 11
6559.4187585309
 21
5231.3638667335
 31
0.0
  0
LINE
  5
DE
330
1F
100
AcDbEntity
  8
0
  6
Continuous
 62
     7
370
    25
100
AcDbLine
 10
6557.8187612488
 20
5223.2940832844
 30
0.0
 11
6557.8187612488
 21
5231.3638667335
 31
0.0
  0
LINE
  5
DF
330
1F
100
AcDbEntity
  8
0
  6
Continuous
 62
     7
370
    25
100
AcDbLine
 10
6559.5187453225
 20
5129.2683372965
 30
0.0
 11
6561.1187426045
 21
5129.2683372965
 31
0.0
  0
LINE
  5
E0
330
1F
100
AcDbEntity
  8
0
  6
Continuous
 62
     7
370
    25
100
AcDbLine
 10
6561.1187426045
 20
5126.6994516125
 30
0.0
 11
6559.5187453225
 21
5126.6994516125
 31
0.0
  0
LINE
  5
E1
330
1F
100
AcDbEntity
  8
0
  6
Continuous
 62
     7
370
    25
100
AcDbLine
 10
6561.1187426045
 20
5129.2683372965
 30
0.0
 11
6561.1187426045
 21
5126.6994516125
 31
0.0
  0
LINE
  5
E2
330
1F
100
AcDbEntity
  8
0
  6
Continuous
 62
     7
370
    25
100
AcDbLine
 10
6559.5187453225
 20
5129.2683372965
 30
0.0
 11
6559.5187453225
 21
5126.6994516125
 31
0.0
  0
LINE
  5
E3
330
1F
100
AcDbEntity
  8
0
  6
Continuous
 62
     7
370
    25
100
AcDbLine
 10
6561.1187426045
 20
5130.8629701605
 30
0.0
 11
6561.1187426045
 21
5129.2683372965
 31
0.0
  0
LINE
  5
E4
330
1F
100
AcDbEntity
  8
0
  6
Continuous
 62
     7
370
    25
100
AcDbLine
 10
6559.5187453225
 20
5126.6994516125
 30
0.0
 11
6558.5187581971
 21
5126.6994516125
 31
0.0
  0
LINE
  5
E5
330
1F
100
AcDbEntity
  8
0
  6
Continuous
 62
     7
370
    25
100
AcDbLine
 10
6558.5187581971
 20
5234.0994554331
 30
0.0
 11
6559.5187453225
 21
5234.0994554331
 31
0.0
  0
LINE
  5
E6
330
1F
100
AcDbEntity
  8
0
  6
Continuous
 62
     7
370
    25
100
AcDbLine
 10
6558.5187581971
 20
5126.6994516125
 30
0.0
 11
6541.4187518551
 21
5126.6994516125
 31
0.0
  0
CIRCLE
  5
E7
330
1F
100
AcDbEntity
  8
0
  6
Continuous
 62
     7
370
    25
100
AcDbCircle
 10
6516.1187553359
 20
5226.6994545925
 30
0.0
 40
4.0
  0
CIRCLE
  5
E8
330
1F
100
AcDbEntity
  8
0
  6
Continuous
 62
     7
370
    25
100
AcDbCircle
 10
6546.1187553359
 20
5221.3994545925
 30
0.0
 40
4.0
  0
CIRCLE
  5
E9
330
1F
100
AcDbEntity
  8
0
  6
Continuous
 62
     7
370
    25
100
AcDbCircle
 10
6546.1187553359
 20
5136.3994545925
 30
0.0
 40
4.0
  0
LINE
  5
EA
330
1F
100
AcDbEntity
  8
0
  6
Continuous
 62
     7
370
    25
100
AcDbLine
 10
6506.5165070489
 20
5215.988684701
 30
0.0
 11
6541.4187518551
 21
5126.6994516125
 31
0.0
  0
LINE
  5
EB
330
1F
100
AcDbEntity
  8
0
  6
Continuous
 62
     7
370
    25
100
AcDbLine
 10
6511.0214111998
 20
5234.0994554331
 30
0.0
 11
6558.5187581971
 21
5234.0994554331
 31
0.0
  0
SPLINE
  5
EC
330
1F
100
AcDbEntity
  8
0
  6
Continuous
 62
     7
370
    25
100
AcDbSpline
210
0.0
220
0.0
230
1.0
 70
     8
 71
     3
 72
    15
 73
    11
 74
     0
 42
0.000000001
 43
0.00000001
 40
0.0
 40
0.0
 40
0.0
 40
0.0
 40
0.1249997981274815
 40
0.2500013440543855
 40
0.3749984559610165
 40
0.4999974711671533
 40
0.6250021034649965
 40
0.7499986136372621
 40
0.8750004303331456
 40
1.0
 40
1.0
 40
1.0
 40
1.0
 10
5986.918768067609
 20
5223.406750964151
 30
0.0
 10
5986.943564285963
 20
5223.193347385887
 30
0.0
 10
5986.993157069384
 20
5222.766537245462
 30
0.0
 10
5987.374736906054
 20
5222.221664542739
 30
0.0
 10
5987.92011665591
 20
5221.852894691079
 30
0.0
 10
5988.568753187325
 20
5221.714276615402
 30
0.0
 10
5989.217390914824
 20
5221.824722187829
 30
0.0
 10
5989.762782778329
 20
5222.1653320466
 30
0.0
 10
5990.144359563937
 20
5222.682035281859
 30
0.0
 10
5990.19395295208
 20
5223.090068506006
 30
0.0
 10
5990.218749423276
 20
5223.294083284364
 30
0.0
  0
LINE
  5
ED
330
1F
100
AcDbEntity
  8
0
  6
Continuous
 62
     7
370
    25
100
AcDbLine
 10
5988.5187653496
 20
5223.4067509642
 30
0.0
 11
5986.9187680676
 21
5223.4067509642
 31
0.0
  0
SPLINE
  5
EE
330
1F
100
AcDbEntity
  8
0
  6
Continuous
 62
     7
370
    25
100
AcDbSpline
210
0.0
220
0.0
230
1.0
 70
     8
 71
     3
 72
    11
 73
     7
 74
     0
 42
0.000000001
 43
0.00000001
 40
0.0
 40
0.0
 40
0.0
 40
0.0
 40
0.2500036365750098
 40
0.5000059899931042
 40
0.750027187765987
 40
1.0
 40
1.0
 40
1.0
 40
1.0
 10
5988.518765349637
 20
5223.406750964151
 30
0.0
 10
5988.521917734805
 20
5223.384740728879
 30
0.0
 10
5988.528222488962
 20
5223.340720371301
 30
0.0
 10
5988.568735152754
 20
5223.296861196216
 30
0.0
 10
5988.609304409358
 20
5223.284386720777
 30
0.0
 10
5988.615603100464
 20
5223.290851305032
 30
0.0
 10
5988.618752141248
 20
5223.294083284364
 30
0.0
  0
LINE
  5
EF
330
1F
100
AcDbEntity
  8
0
  6
Continuous
 62
     7
370
    25
100
AcDbLine
 10
5988.6187521412
 20
5223.2940832844
 30
0.0
 11
5990.2187494233
 21
5223.2940832844
 31
0.0
  0
LINE
  5
F0
330
1F
100
AcDbEntity
  8
0
  6
Continuous
 62
     7
370
    25
100
AcDbLine
 10
5990.2187494233
 20
5130.8629701605
 30
0.0
 11
5990.2187494233
 21
5223.2940832844
 31
0.0
  0
ARC
  5
F1
330
1F
100
AcDbEntity
  8
0
  6
Continuous
 62
     7
370
    25
100
AcDbCircle
 10
5988.5940729035
 20
5130.8922620131
 30
0.0
 40
1.624940554729559
100
AcDbArc
 50
267.3436867753
 51
358.9671065613
  0
ARC
  5
F2
330
1F
100
AcDbEntity
  8
0
  6
Continuous
 62
     7
370
    25
100
AcDbCircle
 10
5988.5395777795
 20
5130.8899683972
 30
0.0
 40
1.621034554565489
100
AcDbArc
 50
180.9543020168
 51
269.2643604326
  0
LINE
  5
F3
330
1F
100
AcDbEntity
  8
0
  6
Continuous
 62
     7
370
    25
100
AcDbLine
 10
5986.9187680676
 20
5130.8629701605
 30
0.0
 11
5986.9187680676
 21
5223.4067509642
 31
0.0
  0
LINE
  5
F4
330
1F
100
AcDbEntity
  8
0
  6
Continuous
 62
     7
370
    25
100
AcDbLine
 10
5986.9187680676
 20
5234.0994554331
 30
0.0
 11
5986.9187680676
 21
5223.4067509642
 31
0.0
  0
LINE
  5
F5
330
1F
100
AcDbEntity
  8
0
  6
Continuous
 62
     7
370
    25
100
AcDbLine
 10
5988.5187653496
 20
5234.0994554331
 30
0.0
 11
5986.9187680676
 21
5234.0994554331
 31
0.0
  0
LINE
  5
F6
330
1F
100
AcDbEntity
  8
0
  6
Continuous
 62
     7
370
    25
100
AcDbLine
 10
5988.5187653496
 20
5234.0994554331
 30
0.0
 11
5988.5187653496
 21
5223.4067509642
 31
0.0
  0
ARC
  5
F7
330
1F
100
AcDbEntity
  8
0
  6
Continuous
 62
     7
370
    25
100
AcDbCircle
 10
5989.5187553362
 20
5234.0994545925
 30
0.0
 40
2.600000000000656
100
AcDbArc
 50
126.1289274657
 51
180.0
  0
ARC
  5
F8
330
1F
100
AcDbEntity
  8
0
  6
Continuous
 62
     7
370
    25
100
AcDbCircle
 10
5989.5187553362
 20
5234.0994545925
 30
0.0
 40
1.000000000000909
100
AcDbArc
 50
90.0
 51
180.0
  0
LINE
  5
F9
330
1F
100
AcDbEntity
  8
0
  6
Continuous
 62
     7
370
    25
100
AcDbLine
 10
5989.518752475
 20
5235.0994537344
 30
0.0
 11
6018.5187665417
 21
5235.0994537344
 31
0.0
  0
LINE
  5
FA
330
1F
100
AcDbEntity
  8
0
  6
Continuous
 62
     7
370
    25
100
AcDbLine
 10
6018.5187665417
 20
5236.1994537284
 30
0.0
 11
6018.5187665417
 21
5235.0994537344
 31
0.0
  0
LINE
  5
FB
330
1F
100
AcDbEntity
  8
0
  6
Continuous
 62
     7
370
    25
100
AcDbLine
 10
5988.6187521412
 20
5231.3638667335
 30
0.0
 11
5990.2187494233
 21
5231.3638667335
 31
0.0
  0
LINE
  5
FC
330
1F
100
AcDbEntity
  8
0
  6
Continuous
 62
     7
370
    25
100
AcDbLine
 10
5990.2187494233
 20
5223.2940832844
 30
0.0
 11
5990.2187494233
 21
5231.3638667335
 31
0.0
  0
LINE
  5
FD
330
1F
100
AcDbEntity
  8
0
  6
Continuous
 62
     7
370
    25
100
AcDbLine
 10
5988.6187521412
 20
5223.2940832844
 30
0.0
 11
5988.6187521412
 21
5231.3638667335
 31
0.0
  0
LINE
  5
FE
330
1F
100
AcDbEntity
  8
0
  6
Continuous
 62
     7
370
    25
100
AcDbLine
 10
5986.9187680676
 20
5126.6994516125
 30
0.0
 11
5988.5187653496
 21
5126.6994516125
 31
0.0
  0
LINE
  5
FF
330
1F
100
AcDbEntity
  8
0
  6
Continuous
 62
     7
370
    25
100
AcDbLine
 10
5988.5187653496
 20
5129.2683372965
 30
0.0
 11
5986.9187680676
 21
5129.2683372965
 31
0.0
  0
LINE
  5
100
330
1F
100
AcDbEntity
  8
0
  6
Continuous
 62
     7
370
    25
100
AcDbLine
 10
5986.9187680676
 20
5129.2683372965
 30
0.0
 11
5986.9187680676
 21
5126.6994516125
 31
0.0
  0
LINE
  5
101
330
1F
100
AcDbEntity
  8
0
  6
Continuous
 62
     7
370
    25
100
AcDbLine
 10
5988.5187653496
 20
5129.2683372965
 30
0.0
 11
5988.5187653496
 21
5126.6994516125
 31
0.0
  0
LINE
  5
102
330
1F
100
AcDbEntity
  8
0
  6
Continuous
 62
     7
370
    25
100
AcDbLine
 10
5986.9187680676
 20
5130.8629701605
 30
0.0
 11
5986.9187680676
 21
5129.2683372965
 31
0.0
  0
LINE
  5
103
330
1F
100
AcDbEntity
  8
0
  6
Continuous
 62
     7
370
    25
100
AcDbLine
 10
5989.518752475
 20
5234.0994554331
 30
0.0
 11
5988.5187653496
 21
5234.0994554331
 31
0.0
  0
LINE
  5
104
330
1F
100
AcDbEntity
  8
0
  6
Continuous
 62
     7
370
    25
100
AcDbLine
 10
5988.5187653496
 20
5126.6994516125
 30
0.0
 11
5989.518752475
 21
5126.6994516125
 31
0.0
  0
LINE
  5
105
330
1F
100
AcDbEntity
  8
0
  6
Continuous
 62
     7
370
    25
100
AcDbLine
 10
5989.518752475
 20
5126.6994516125
 30
0.0
 11
6006.618758817
 21
5126.6994516125
 31
0.0
  0
CIRCLE
  5
106
330
1F
100
AcDbEntity
  8
0
  6
Continuous
 62
     7
370
    25
100
AcDbCircle
 10
6031.9187553362
 20
5226.6994545925
 30
0.0
 40
4.000000000000909
  0
CIRCLE
  5
107
330
1F
100
AcDbEntity
  8
0
  6
Continuous
 62
     7
370
    25
100
AcDbCircle
 10
6001.9187553362
 20
5221.3994545925
 30
0.0
 40
4.0
  0
CIRCLE
  5
108
330
1F
100
AcDbEntity
  8
0
  6
Continuous
 62
     7
370
    25
100
AcDbCircle
 10
6001.9187553362
 20
5136.3994545925
 30
0.0
 40
4.0
  0
LINE
  5
109
330
1F
100
AcDbEntity
  8
0
  6
Continuous
 62
     7
370
    25
100
AcDbLine
 10
6037.0790717795
 20
5234.0994554331
 30
0.0
 11
5989.518752475
 21
5234.0994554331
 31
0.0
  0
LINE
  5
10A
330
1F
100
AcDbEntity
  8
0
  6
Continuous
 62
     7
370
    25
100
AcDbLine
 10
6041.5795353844
 20
5216.1384078433
 30
0.0
 11
6006.618758817
 21
5126.6994516125
 31
0.0
  0
LINE
  5
10B
330
1F
100
AcDbEntity
  8
0
  6
Continuous
 62
     7
370
    25
100
AcDbLine
 10
6016.5187624886
 20
5264.1994545927
 30
0.0
 11
6531.5187481835
 21
5264.1994545927
 31
0.0
  0
LINE
  5
10C
330
1F
100
AcDbEntity
  8
0
  6
Continuous
 62
     7
370
    25
100
AcDbLine
 10
6531.5187481835
 20
5264.1994545927
 30
0.0
 11
6531.5187481835
 21
5259.1994547044
 31
0.0
  0
LINE
  5
10D
330
1F
100
AcDbEntity
  8
0
  6
Continuous
 62
     7
370
    25
100
AcDbLine
 10
6531.5187481835
 20
5259.1994547044
 30
0.0
 11
6016.5187624886
 21
5259.1994547044
 31
0.0
  0
LINE
  5
10E
330
1F
100
AcDbEntity
  8
0
  6
Continuous
 62
     7
370
    25
100
AcDbLine
 10
6016.5187624886
 20
5264.1994545927
 30
0.0
 11
6016.5187624886
 21
5259.1994547044
 31
0.0
  0
LINE
  5
10F
330
1F
100
AcDbEntity
  8
0
  6
Continuous
 62
     7
370
    25
100
AcDbLine
 10
6016.5187624886
 20
5259.1994547044
 30
0.0
 11
6016.5187624886
 21
5236.1994537284
 31
0.0
  0
LINE
  5
110
330
1F
100
AcDbEntity
  8
0
  6
Continuous
 62
     7
370
    25
100
AcDbLine
 10
6531.5187481835
 20
5236.1994537284
 30
0.0
 11
6531.5187481835
 21
5259.1994547044
 31
0.0
  0
LINE
  5
111
330
1F
100
AcDbEntity
  8
0
  6
Continuous
 62
     7
370
    25
100
AcDbLine
 10
6531.5187481835
 20
5236.1994537284
 30
0.0
 11
6016.5187624886
 21
5236.1994537284
 31
0.0
  0
LINE
  5
112
330
1F
100
AcDbEntity
  8
0
  6
Continuous
 62
     7
370
    25
100
AcDbLine
 10
5981.5187660649
 20
5264.1994545927
 30
0.0
 11
6016.5187624886
 21
5264.1994545927
 31
0.0
  0
LINE
  5
113
330
1F
100
AcDbEntity
  8
0
  6
Continuous
 62
     7
370
    25
100
AcDbLine
 10
6016.5187624886
 20
5259.1994547044
 30
0.0
 11
5976.5187410309
 21
5259.1994547044
 31
0.0
  0
ARC
  5
114
330
1F
100
AcDbEntity
  8
0
  6
Continuous
 62
     7
370
    25
100
AcDbCircle
 10
5981.5187553361
 20
5259.1994545927
 30
0.0
 40
5.000000000000909
100
AcDbArc
 50
90.0
 51
180.0
  0
LINE
  5
115
330
1F
100
AcDbEntity
  8
0
  6
Continuous
 62
     7
370
    25
100
AcDbLine
 10
5976.5187410309
 20
5236.1994537284
 30
0.0
 11
5976.5187410309
 21
5259.1994547044
 31
0.0
  0
LINE
  5
116
330
1F
100
AcDbEntity
  8
0
  6
Continuous
 62
     7
370
    25
100
AcDbLine
 10
6016.5187624886
 20
5236.1994537284
 30
0.0
 11
5976.5187410309
 21
5236.1994537284
 31
0.0
  0
LINE
  5
117
330
1F
100
AcDbEntity
  8
0
  6
Continuous
 62
     7
370
    25
100
AcDbLine
 10
6571.5187696412
 20
5259.1994547044
 30
0.0
 11
6531.5187481835
 21
5259.1994547044
 31
0.0
  0
LINE
  5
118
330
1F
100
AcDbEntity
  8
0
  6
Continuous
 62
     7
370
    25
100
AcDbLine
 10
6571.5187696412
 20
5259.1994547044
 30
0.0
 11
6571.5187696412
 21
5236.1994537284
 31
0.0
  0
LINE
  5
119
330
1F
100
AcDbEntity
  8
0
  6
Continuous
 62
     7
370
    25
100
AcDbLine
 10
6571.5187696412
 20
5236.1994537284
 30
0.0
 11
6531.5187481835
 21
5236.1994537284
 31
0.0
  0
LINE
  5
11A
330
1F
100
AcDbEntity
  8
0
  6
Continuous
 62
     7
370
    25
100
AcDbLine
 10
6531.5187481835
 20
5264.1994545927
 30
0.0
 11
6566.5187446072
 21
5264.1994545927
 31
0.0
  0
ARC
  5
11B
330
1F
100
AcDbEntity
  8
0
  6
Continuous
 62
     7
370
    25
100
AcDbCircle
 10
6566.5187553361
 20
5259.1994545927
 30
0.0
 40
5.0
100
AcDbArc
 50
0.0
 51
90.0
  0
SPLINE
  5
11C
330
1F
100
AcDbEntity
  8
0
  6
Continuous
 62
     7
370
    25
100
AcDbSpline
210
0.0
220
0.0
230
1.0
 70
     8
 71
     3
 72
    22
 73
    18
 74
     0
 42
0.000000001
 43
0.00000001
 40
0.0
 40
0.0
 40
0.0
 40
0.0
 40
0.125
 40
0.125
 40
0.25
 40
0.25
 40
0.375
 40
0.375
 40
0.5
 40
0.5
 40
0.625
 40
0.625
 40
0.75
 40
0.75
 40
0.875
 40
0.875
 40
1.0
 40
1.0
 40
1.0
 40
1.0
 10
6137.021276712474
 20
5148.372673708194
 30
0.0
 10
6134.103601318252
 20
5149.614463900128
 30
0.0
 10
6131.119373296568
 20
5151.127644062506
 30
0.0
 10
6125.109534020228
 20
5154.710862984054
 30
0.0
 10
6122.084217326432
 20
5156.781110982429
 30
0.0
 10
6116.101236343866
 20
5161.453767407559
 30
0.0
 10
6113.143999230685
 20
5164.056159640318
 30
0.0
 10
6107.412254370095
 20
5169.725725534146
 30
0.0
 10
6104.638217434239
 20
5172.792621600764
 30
0.0
 10
6099.380129514188
 20
5179.285478332848
 30
0.0
 10
6096.896475608723
 20
5182.710948672674
 30
0.0
 10
6092.305110593092
 20
5189.788692151542
 30
0.0
 10
6090.197624286257
 20
5193.440383917309
 30
0.0
 10
6086.413583141269
 20
5200.828361741502
 30
0.0
 10
6084.737041417391
 20
5204.564120309778
 30
0.0
 10
6081.83525578228
 20
5211.985263509713
 30
0.0
 10
6080.609842423522
 20
5215.670284408178
 30
0.0
 10
6079.604207881592
 20
5219.273123954759
 30
0.0
  0
ELLIPSE
  5
11D
330
1F
100
AcDbEntity
  8
0
  6
Continuous
 62
     7
370
    25
100
AcDbEllipse
 10
6156.5187553361
 20
5254.1994545927
 30
0.0
 11
0.0
 21
121.2000000000007
 31
0.0
210
0.0
220
0.0
230
1.0
 40
0.3300330033
 41
2.632440787071429
 42
3.141592653589793
  0
ELLIPSE
  5
11E
330
1F
100
AcDbEntity
  8
0
  6
Continuous
 62
     7
370
    25
100
AcDbEllipse
 10
6391.5187553361
 20
5254.1994545927
 30
0.0
 11
0.0
 21
121.2000000000007
 31
0.0
210
0.0
220
0.0
230
1.0
 40
0.3300330033
 41
3.141592653589793
 42
3.650744519561925
  0
LINE
  5
11F
330
1F
100
AcDbEntity
  8
0
  6
Continuous
 62
     7
370
    25
100
AcDbLine
 10
6156.5187556341
 20
5132.999453949
 30
0.0
 11
6391.518755038
 21
5132.999453949
 31
0.0
  0
LWPOLYLINE
  5
120
330
1F
100
AcDbEntity
  8
0
  6
Continuous
 62
     7
370
    25
100
AcDbPolyline
 90
       19
 70
   128
 43
0.0
 10
6411.0162315562
 20
5148.3726764788
 10
6415.1549843743
 20
5150.2966697087
 10
6419.2747680142
 20
5152.5368432274
 10
6423.3567027047
 20
5155.0829226842
 10
6427.3820725873
 20
5157.9232479205
 10
6431.3324151232
 20
5161.0447878709
 10
6435.1896254017
 20
5164.4332374205
 10
6438.9360455468
 20
5168.0730695596
 10
6442.5544647172
 20
5171.9475949874
 10
6446.0283277228
 20
5176.0390515199
 10
6449.3417052224
 20
5180.3286934962
 10
6452.4793980315
 20
5184.7968439331
 10
6455.4270265296
 20
5189.423028635
 10
6458.1710902646
 20
5194.1860507002
 10
6460.6989977553
 20
5199.0640650263
 10
6462.9991558983
 20
5204.0347086956
 10
6465.0610444739
 20
5209.0752090087
 10
6466.8752012446
 20
5214.1624542644
 10
6468.4332964614
 20
5219.2731241455
  0
LWPOLYLINE
  5
121
330
1F
100
AcDbEntity
  8
0
  6
Continuous
 62
     7
370
    25
100
AcDbPolyline
 90
       11
 70
   128
 43
0.0
 10
6097.4414107993
 20
5148.3726764788
 10
6100.8185503676
 20
5146.717604505
 10
6104.3749360039
 20
5145.4217548241
 10
6108.0929545357
 20
5144.4915349355
 10
6111.9541881278
 20
5143.9315567484
 10
6115.9395334914
 20
5143.7445844283
 10
6120.0292614892
 20
5143.9315567484
 10
6124.2031065419
 20
5144.4915349355
 10
6128.440400739
 20
5145.4217548241
 10
6132.7201930478
 20
5146.717604505
 10
6137.0212791159
 20
5148.3726764788
  0
LWPOLYLINE
  5
122
330
1F
100
AcDbEntity
  8
0
  6
Continuous
 62
     7
370
    25
100
AcDbPolyline
 90
       19
 70
   128
 43
0.0
 10
6097.4414107993
 20
5148.3726764788
 10
6094.3767038777
 20
5150.2966697087
 10
6091.5074852898
 20
5152.5368432274
 10
6088.8468978598
 20
5155.0829226842
 10
6086.4071307376
 20
5157.9232479205
 10
6084.1993746951
 20
5161.0447878709
 10
6082.2337476208
 20
5164.4332374205
 10
6080.5192647174
 20
5168.0730695596
 10
6079.0637639954
 20
5171.9475949874
 10
6077.8739360764
 20
5176.0390515199
 10
6076.9552347853
 20
5180.3286934962
 10
6076.3118771508
 20
5184.7968439331
 10
6075.9467987015
 20
5189.423028635
 10
6075.8616683676
 20
5194.1860507002
 10
6076.0568884804
 20
5199.0640650263
 10
6076.5315649703
 20
5204.0347086956
 10
6077.2835222676
 20
5209.0752090087
 10
6078.309303303
 20
5214.1624542644
 10
6079.6042142108
 20
5219.2731241455
  0
SPLINE
  5
123
330
1F
100
AcDbEntity
  8
0
  6
Continuous
 62
     7
370
    25
100
AcDbSpline
210
0.0
220
0.0
230
1.0
 70
     8
 71
     3
 72
    22
 73
    18
 74
     0
 42
0.000000001
 43
0.00000001
 40
0.0
 40
0.0
 40
0.0
 40
0.0
 40
0.125
 40
0.125
 40
0.25
 40
0.25
 40
0.375
 40
0.375
 40
0.5
 40
0.5
 40
0.625
 40
0.625
 40
0.75
 40
0.75
 40
0.875
 40
0.875
 40
1.0
 40
1.0
 40
1.0
 40
1.0
 10
6450.596100283406
 20
5148.372673708194
 30
0.0
 10
6452.820551201677
 20
5149.614463900128
 30
0.0
 10
6454.960052500861
 20
5151.127644062507
 30
0.0
 10
6458.969574525183
 20
5154.710862984055
 30
0.0
 10
6460.839183882735
 20
5156.78111098243
 30
0.0
 10
6464.213674060522
 20
5161.45376740756
 30
0.0
 10
6465.718136745536
 20
5164.056159640319
 30
0.0
 10
6468.284870671197
 20
5169.725725534148
 30
0.0
 10
6469.346826066278
 20
5172.792621600765
 30
0.0
 10
6470.980304793203
 20
5179.285478332849
 30
0.0
 10
6471.551704768483
 20
5182.710948672676
 30
0.0
 10
6472.191950378682
 20
5189.788692151543
 30
0.0
 10
6472.260895759297
 20
5193.440383917311
 30
0.0
 10
6471.920630765592
 20
5200.828361741504
 30
0.0
 10
6471.511701745947
 20
5204.564120309779
 30
0.0
 10
6470.270667002883
 20
5211.985263509715
 30
0.0
 10
6469.438933779311
 20
5215.67028440818
 30
0.0
 10
6468.433299141159
 20
5219.273123954761
 30
0.0
  0
LWPOLYLINE
  5
124
330
1F
100
AcDbEntity
  8
0
  6
Continuous
 62
     7
370
    25
100
AcDbPolyline
 90
       11
 70
   128
 43
0.0
 10
6411.0162315562
 20
5148.3726764788
 10
6415.3173176243
 20
5146.717604505
 10
6419.5971099331
 20
5145.4217548241
 10
6423.8344041302
 20
5144.4915349355
 10
6428.0082491829
 20
5143.9315567484
 10
6432.0979771807
 20
5143.7445844283
 10
6436.0833225443
 20
5143.9315567484
 10
6439.9445561364
 20
5144.4915349355
 10
6443.6625746682
 20
5145.4217548241
 10
6447.2189603045
 20
5146.717604505
 10
6450.5960998728
 20
5148.3726764788
  0
SPLINE
  5
125
330
1F
100
AcDbEntity
  8
0
  6
Continuous
 62
     7
370
    25
100
AcDbSpline
210
0.0
220
0.0
230
1.0
 70
     8
 71
     3
 72
    18
 73
    14
 74
     0
 42
0.000000001
 43
0.00000001
 40
0.0
 40
0.0
 40
0.0
 40
0.0
 40
0.0396233952142467
 40
0.1396664611683344
 40
0.2397079771868374
 40
0.3312054322321621
 40
0.4370885479972304
 40
0.5434163460884359
 40
0.6497210041335756
 40
0.7555723426847548
 40
0.8370141749647008
 40
0.9185646598182311
 40
1.0
 40
1.0
 40
1.0
 40
1.0
 10
6036.786234159718
 20
5236.199453728424
 30
0.0
 10
6036.968003658292
 20
5234.778484455361
 30
0.0
 10
6037.608713584255
 20
5229.769783188734
 30
0.0
 10
6039.73469232674
 20
5221.325975555231
 30
0.0
 10
6043.011490495418
 20
5211.255499258379
 30
0.0
 10
6047.298410014621
 20
5201.291240128341
 30
0.0
 10
6052.585528496376
 20
5191.50644171296
 30
0.0
 10
6059.126087920738
 20
5181.777115709054
 30
0.0
 10
6066.60059862954
 20
5172.66507839879
 30
0.0
 10
6074.31805983482
 20
5164.920056148367
 30
0.0
 10
6082.029655504882
 20
5158.459696122598
 30
0.0
 10
6089.471457957868
 20
5153.058043102104
 30
0.0
 10
6094.78601137715
 20
5149.933729608197
 30
0.0
 10
6097.441410799275
 20
5148.372676478849
 30
0.0
  0
SPLINE
  5
126
330
1F
100
AcDbEntity
  8
0
  6
Continuous
 62
     7
370
    25
100
AcDbSpline
210
0.0
220
0.0
230
1.0
 70
     8
 71
     3
 72
    26
 73
    22
 74
     0
 42
0.000000001
 43
0.00000001
 40
0.0
 40
0.0
 40
0.0
 40
0.0
 40
0.125
 40
0.125
 40
0.2499999999999999
 40
0.2499999999999999
 40
0.3749999999999999
 40
0.3749999999999999
 40
0.4999999999999999
 40
0.4999999999999999
 40
0.5624999999999999
 40
0.5624999999999999
 40
0.6249999999999999
 40
0.6249999999999999
 40
0.6874999999999999
 40
0.6874999999999999
 40
0.7499999999999998
 40
0.7499999999999998
 40
0.8749999999999999
 40
0.8749999999999999
 40
1.0
 40
1.0
 40
1.0
 40
1.0
 10
6512.128146381977
 20
5242.248913980893
 30
0.0
 10
6511.686606970695
 20
5237.793066893195
 30
0.0
 10
6510.999354514343
 20
5233.367840319179
 30
0.0
 10
6509.132013126342
 20
5224.590378781948
 30
0.0
 10
6507.951828341139
 20
5220.23791272508
 30
0.0
 10
6505.084091877318
 20
5211.620156152778
 30
0.0
 10
6503.396185590172
 20
5207.354700763916
 30
0.0
 10
6499.482839085907
 20
5198.929065544236
 30
0.0
 10
6497.256879842842
 20
5194.768686488685
 30
0.0
 10
6493.475791896402
 20
5188.62529233001
 30
0.0
 10
6492.14428655285
 20
5186.598487553465
 30
0.0
 10
6489.34375641133
 20
5182.605755105186
 30
0.0
 10
6487.873720206313
 20
5180.637925421962
 30
0.0
 10
6484.788766315386
 20
5176.763479139427
 30
0.0
 10
6483.173674047229
 20
5174.856985580839
 30
0.0
 10
6479.791612767784
 20
5171.11092983315
 30
0.0
 10
6478.024086104123
 20
5169.270866385544
 30
0.0
 10
6472.517478658458
 20
5163.894205957973
 30
0.0
 10
6468.566077494582
 20
5160.489813320033
 30
0.0
 10
6460.0564881436
 20
5154.097320772432
 30
0.0
 10
6455.498107856763
 20
5151.109169427048
 30
0.0
 10
6450.596104728153
 20
5148.37267618943
 30
0.0
  0
SPLINE
  5
127
330
1F
100
AcDbEntity
  8
0
  6
Continuous
 62
     7
370
    25
100
AcDbSpline
210
0.0
220
0.0
230
1.0
 70
     8
 71
     3
 72
    23
 73
    19
 74
     0
 42
0.000000001
 43
0.00000001
 40
0.0
 40
0.0
 40
0.0
 40
0.0
 40
0.0720320192787675
 40
0.1496706877081405
 40
0.2226830482831258
 40
0.2974694502087972
 40
0.3705942056462952
 40
0.4423425059260968
 40
0.5162533580810368
 40
0.5728423608531826
 40
0.6313002450061721
 40
0.6916281292908276
 40
0.7463976698039806
 40
0.8037118247126936
 40
0.8635712077655541
 40
0.9084433236915223
 40
0.95639494917361
 40
1.0
 40
1.0
 40
1.0
 40
1.0
 10
6468.6647860005
 20
5160.735633479581
 30
0.0
 10
6470.322577065417
 20
5162.142628822245
 30
0.0
 10
6473.767194212719
 20
5165.066133711417
 30
0.0
 10
6478.542370962777
 20
5169.757775275648
 30
0.0
 10
6483.110121907566
 20
5174.729701181869
 30
0.0
 10
6487.293716288958
 20
5179.828220294658
 30
0.0
 10
6491.159927561383
 20
5185.098148668359
 30
0.0
 10
6494.71481160453
 20
5190.528640580928
 30
0.0
 10
6497.720330586155
 20
5195.702687970438
 30
0.0
 10
6500.288133692581
 20
5200.652365661601
 30
0.0
 10
6502.472449145976
 20
5205.333484603614
 30
0.0
 10
6504.428258416325
 20
5210.046792016235
 30
0.0
 10
6506.17085768827
 20
5214.798208250072
 30
0.0
 10
6507.712092829957
 20
5219.59698717521
 30
0.0
 10
6508.971043006655
 20
5224.171324661294
 30
0.0
 10
6509.987737197826
 20
5228.518611225952
 30
0.0
 10
6510.778748420844
 20
5232.42678996938
 30
0.0
 10
6511.188263804493
 20
5235.068344550507
 30
0.0
 10
6511.383300800572
 20
5236.326419072376
 30
0.0
  0
ARC
  5
128
330
1F
100
AcDbEntity
  8
0
  6
Continuous
 62
     7
370
    25
100
AcDbCircle
 10
6156.5187553361
 20
5254.1994545927
 30
0.0
 40
121.1999999999998
100
AcDbArc
 50
240.8277469486
 51
270.0
  0
ARC
  5
129
330
1F
100
AcDbEntity
  8
0
  6
Continuous
 62
     7
370
    25
100
AcDbCircle
 10
6391.5187553361
 20
5254.1994545927
 30
0.0
 40
121.1999999999998
100
AcDbArc
 50
270.0
 51
299.1722530827
  0
LINE
  5
12A
330
1F
100
AcDbEntity
  8
0
  6
Continuous
 62
     8
370
    25
100
AcDbLine
 10
6246.9125410214
 20
4918.8937733641
 30
0.0
 11
6301.1249696508
 21
4918.8937733641
 31
0.0
  0
LINE
  5
12B
330
1F
100
AcDbEntity
  8
0
  6
Continuous
 62
     8
370
    25
100
AcDbLine
 10
6301.3281972751
 20
5043.5470978489
 30
0.0
 11
6246.7093133971
 21
5043.5470978489
 31
0.0
  0
LINE
  5
12C
330
1F
100
AcDbEntity
  8
0
  6
Continuous
 62
     8
370
    25
100
AcDbLine
 10
6251.0187552914
 20
5059.6994499435
 30
0.0
 11
6297.0187553808
 21
5059.6994499435
 31
0.0
  0
LINE
  5
12D
330
1F
100
AcDbEntity
  8
0
  6
Continuous
 62
     8
370
    25
100
AcDbLine
 10
6246.0187544718
 20
5081.9994549026
 30
0.0
 11
6302.0187562003
 21
5081.9994549026
 31
0.0
  0
LINE
  5
12E
330
1F
100
AcDbEntity
  8
0
  6
Continuous
 62
     8
370
    25
100
AcDbLine
 10
6558.5187581971
 20
5235.0994537344
 30
0.0
 11
6558.5187581971
 21
5236.1994537284
 31
0.0
  0
LINE
  5
12F
330
1F
100
AcDbEntity
  8
0
  6
Continuous
 62
     8
370
    25
100
AcDbLine
 10
6558.5187581971
 20
5126.6994516125
 30
0.0
 11
6558.5187581971
 21
5129.5591632595
 31
0.0
  0
LINE
  5
130
330
1F
100
AcDbEntity
  8
0
  6
Continuous
 62
     8
370
    25
100
AcDbLine
 10
6558.5187581971
 20
5231.3638667335
 30
0.0
 11
6558.5187581971
 21
5234.0994554331
 31
0.0
  0
LINE
  5
131
330
1F
100
AcDbEntity
  8
0
  6
Continuous
 62
     8
370
    25
100
AcDbLine
 10
5989.518752475
 20
5235.0994537344
 30
0.0
 11
5989.518752475
 21
5236.1994537284
 31
0.0
  0
LINE
  5
132
330
1F
100
AcDbEntity
  8
0
  6
Continuous
 62
     8
370
    25
100
AcDbLine
 10
5989.518752475
 20
5126.6994516125
 30
0.0
 11
5989.518752475
 21
5129.5591632595
 31
0.0
  0
LINE
  5
133
330
1F
100
AcDbEntity
  8
0
  6
Continuous
 62
     8
370
    25
100
AcDbLine
 10
5989.518752475
 20
5231.3638667335
 30
0.0
 11
5989.518752475
 21
5234.0994554331
 31
0.0
  0
SPLINE
  5
134
330
1F
100
AcDbEntity
  8
0
  6
Continuous
 62
     8
370
    25
100
AcDbSpline
210
0.0
220
0.0
230
1.0
 70
     8
 71
     3
 72
    26
 73
    22
 74
     0
 42
0.000000001
 43
0.00000001
 40
0.0
 40
0.0
 40
0.0
 40
0.0
 40
0.0634590370997229
 40
0.1278723956305539
 40
0.190740794489459
 40
0.2522224958298044
 40
0.3148846312755281
 40
0.3738129164722377
 40
0.4341729338248064
 40
0.4931919115793157
 40
0.5511000169501437
 40
0.6107534532324391
 40
0.6564263739874385
 40
0.7036077717320399
 40
0.7522983848908084
 40
0.7965028439188017
 40
0.8427611009177369
 40
0.8910735988626367
 40
0.9272898760424773
 40
0.9659916350348035
 40
1.0
 40
1.0
 40
1.0
 40
1.0
 10
6137.021279115926
 20
5148.372676478849
 30
0.0
 10
6137.723418241338
 20
5149.579199848017
 30
0.0
 10
6139.138255530646
 20
5152.010390749281
 30
0.0
 10
6141.368796342043
 20
5156.080935547088
 30
0.0
 10
6143.657377572445
 20
5160.406664687473
 30
0.0
 10
6146.007202698863
 20
5164.994050361466
 30
0.0
 10
6148.381098693882
 20
5169.753939890898
 30
0.0
 10
6150.80838984508
 20
5174.730725203399
 30
0.0
 10
6153.247495952202
 20
5179.827952482381
 30
0.0
 10
6155.728561410745
 20
5185.098222565493
 30
0.0
 10
6158.249974337961
 20
5190.528617825013
 30
0.0
 10
6160.623271397348
 20
5195.70268743497
 30
0.0
 10
6162.872944309416
 20
5200.652371625059
 30
0.0
 10
6164.985022798593
 20
5205.333480320723
 30
0.0
 10
6167.097502753397
 20
5210.046791282386
 30
0.0
 10
6169.215603661905
 20
5214.798210323384
 30
0.0
 10
6171.344595580879
 20
5219.596988352886
 30
0.0
 10
6173.365262261727
 20
5224.171316623494
 30
0.0
 10
6175.279939472735
 20
5228.518634311391
 30
0.0
 10
6176.978752654903
 20
5232.384634645039
 30
0.0
 10
6178.117766147823
 20
5234.983771600861
 30
0.0
 10
6178.650511582146
 20
5236.199453728424
 30
0.0
  0
SPLINE
  5
135
330
1F
100
AcDbEntity
  8
0
  6
Continuous
 62
     8
370
    25
100
AcDbSpline
210
0.0
220
0.0
230
1.0
 70
     8
 71
     3
 72
    16
 73
    12
 74
     0
 42
0.000000001
 43
0.00000001
 40
0.0
 40
0.0
 40
0.0
 40
0.0
 40
0.0565611820781845
 40
0.173568529398023
 40
0.2858170059160261
 40
0.4046796247495163
 40
0.5194357141060332
 40
0.6400828141568515
 40
0.7570581634770267
 40
0.880252551696107
 40
1.0
 40
1.0
 40
1.0
 40
1.0
 10
6134.462705035458
 20
5236.199453728424
 30
0.0
 10
6133.319431705689
 20
5235.814495305242
 30
0.0
 10
6129.811084403578
 20
5234.633178632994
 30
0.0
 10
6124.129591730429
 20
5232.745311799952
 30
0.0
 10
6117.330998840631
 20
5230.517725696311
 30
0.0
 10
6110.726569166699
 20
5228.39518334531
 30
0.0
 10
6104.132634341585
 20
5226.323508491419
 30
0.0
 10
6097.761378767167
 20
5224.377109893132
 30
0.0
 10
6091.457996900498
 20
5222.518360618513
 30
0.0
 10
6085.386095479691
 20
5220.797364747225
 30
0.0
 10
6081.513191280984
 20
5219.776375634563
 30
0.0
 10
6079.604214210759
 20
5219.273124145494
 30
0.0
  0
SPLINE
  5
136
330
1F
100
AcDbEntity
  8
0
  6
Continuous
 62
     8
370
    25
100
AcDbSpline
210
0.0
220
0.0
230
1.0
 70
     8
 71
     3
 72
    18
 73
    14
 74
     0
 42
0.000000001
 43
0.00000001
 40
0.0
 40
0.0
 40
0.0
 40
0.0
 40
0.0396233793849861
 40
0.1396664969074987
 40
0.239708013284697
 40
0.3312054106613687
 40
0.4370885824497742
 40
0.5434163809222141
 40
0.6497209643254366
 40
0.7555724081777047
 40
0.8370141093845938
 40
0.9185647111094914
 40
0.9999999999999999
 40
0.9999999999999999
 40
0.9999999999999999
 40
0.9999999999999999
 10
6369.389256615887
 20
5236.199453728424
 30
0.0
 10
6370.011266768047
 20
5234.778484240147
 30
0.0
 10
6372.203759693723
 20
5229.76977893231
 30
0.0
 10
6375.924072632208
 20
5221.325979219759
 30
0.0
 10
6380.393694359504
 20
5211.25550330206
 30
0.0
 10
6384.866944103217
 20
5201.291232665746
 30
0.0
 10
6389.326370994509
 20
5191.506445148199
 30
0.0
 10
6393.855432914239
 20
5181.777120858578
 30
0.0
 10
6398.214459421186
 20
5172.665066478599
 30
0.0
 10
6402.052932899087
 20
5164.920070427518
 30
0.0
 10
6405.393348751289
 20
5158.459683486852
 30
0.0
 10
6408.301870201749
 20
5153.058050960662
 30
0.0
 10
6410.111871297806
 20
5149.933731152008
 30
0.0
 10
6411.016231556187
 20
5148.372676478849
 30
0.0
  0
SPLINE
  5
137
330
1F
100
AcDbEntity
  8
0
  6
Continuous
 62
     8
370
    25
100
AcDbSpline
210
0.0
220
0.0
230
1.0
 70
     8
 71
     3
 72
    13
 73
     9
 74
     0
 42
0.000000001
 43
0.00000001
 40
0.0
 40
0.0
 40
0.0
 40
0.0
 40
0.185243466868809
 40
0.371843517729863
 40
0.5683418651659488
 40
0.7648517694315413
 40
0.9671658618503058
 40
1.0
 40
1.0
 40
1.0
 40
1.0
 10
6079.604214210759
 20
5219.273124145494
 30
0.0
 10
6076.767315697684
 20
5220.065274320547
 30
0.0
 10
6071.072743357967
 20
5221.655375783457
 30
0.0
 10
6063.416575074452
 20
5224.571737789969
 30
0.0
 10
6056.437711269738
 20
5227.847131933744
 30
0.0
 10
6050.36998809449
 20
5231.534641484683
 30
0.0
 10
6046.446209666648
 20
5234.341931887639
 30
0.0
 10
6044.869445148116
 20
5235.971863648419
 30
0.0
 10
6044.649278898488
 20
5236.199453728424
 30
0.0
  0
SPLINE
  5
138
330
1F
100
AcDbEntity
  8
0
  6
Continuous
 62
     8
370
    25
100
AcDbSpline
210
0.0
220
0.0
230
1.0
 70
     8
 71
     3
 72
    16
 73
    12
 74
     0
 42
0.000000001
 43
0.00000001
 40
0.0
 40
0.0
 40
0.0
 40
0.0
 40
0.0565610779383689
 40
0.1735685096102885
 40
0.2858169742203028
 40
0.404679496148837
 40
0.5194354622890086
 40
0.6400827580307884
 40
0.7570580498682384
 40
0.8802525643996316
 40
1.0
 40
1.0
 40
1.0
 40
1.0
 10
6503.458729167233
 20
5236.199453728424
 30
0.0
 10
6503.036364037453
 20
5235.814495121323
 30
0.0
 10
6501.740255675314
 20
5234.633175844333
 30
0.0
 10
6499.307475482648
 20
5232.74531347048
 30
0.0
 10
6496.032240479879
 20
5230.517726174518
 30
0.0
 10
6492.42455388083
 20
5228.395184137998
 30
0.0
 10
6488.380060899614
 20
5226.323504740584
 30
0.0
 10
6484.011197512204
 20
5224.377113067127
 30
0.0
 10
6479.1810881846
 20
5222.518358359038
 30
0.0
 10
6474.040970320521
 20
5220.797366176912
 30
0.0
 10
6470.284755563095
 20
5219.776375913196
 30
0.0
 10
6468.433296461354
 20
5219.273124145494
 30
0.0
  0
SPLINE
  5
139
330
1F
100
AcDbEntity
  8
0
  6
Continuous
 62
     8
370
    25
100
AcDbSpline
210
0.0
220
0.0
230
1.0
 70
     8
 71
     3
 72
    13
 73
     9
 74
     0
 42
0.000000001
 43
0.00000001
 40
0.0
 40
0.0
 40
0.0
 40
0.0
 40
0.1859139951538823
 40
0.3718405322705758
 40
0.5708461515259423
 40
0.7705791714477308
 40
0.9703670471610875
 40
1.0
 40
1.0
 40
1.0
 40
1.0
 10
6468.433296461354
 20
5219.273124145494
 30
0.0
 10
6465.447981503656
 20
5220.068370751631
 30
0.0
 10
6459.477150195625
 20
5221.658917612116
 30
0.0
 10
6449.52839506558
 20
5224.588092741265
 30
0.0
 10
6438.829138283631
 20
5227.895473842755
 30
0.0
 10
6427.332063519921
 20
5231.610376649407
 30
0.0
 10
6418.874835915897
 20
5234.403847958784
 30
0.0
 10
6414.190243477372
 20
5235.994055834584
 30
0.0
 10
6413.585161943684
 20
5236.199453728424
 30
0.0
  0
LINE
  5
13A
330
1F
100
AcDbEntity
  8
0
  6
Continuous
 62
     7
370
    25
100
AcDbLine
 10
7144.242979757
 20
4986.1994574537
 30
0.0
 11
7151.1367635647
 21
4918.8937733641
 31
0.0
  0
LINE
  5
13B
330
1F
100
AcDbEntity
  8
0
  6
Continuous
 62
     7
370
    25
100
AcDbLine
 10
7205.3491931254
 20
4918.8937733641
 30
0.0
 11
7212.2429787958
 21
4986.1994574537
 31
0.0
  0
LINE
  5
13C
330
1F
100
AcDbEntity
  8
0
  6
Continuous
 62
     7
370
    25
100
AcDbLine
 10
7212.2429787958
 20
4986.1994574537
 30
0.0
 11
7205.5524207497
 21
5043.5470978489
 31
0.0
  0
LINE
  5
13D
330
1F
100
AcDbEntity
  8
0
  6
Continuous
 62
     7
370
    25
100
AcDbLine
 10
7146.1140813152
 20
5002.2374580374
 30
0.0
 11
7144.242979757
 21
4986.1994574537
 31
0.0
  0
LINE
  5
13E
330
1F
100
AcDbEntity
  8
0
  6
Continuous
 62
     7
370
    25
100
AcDbLine
 10
7134.2429781178
 20
5051.6994486322
 30
0.0
 11
7130.2429774622
 21
5050.199453043
 31
0.0
  0
LINE
  5
13F
330
1F
100
AcDbEntity
  8
0
  6
Continuous
 62
     7
370
    25
100
AcDbLine
 10
7130.2429774622
 20
4998.1994519701
 30
0.0
 11
7134.2429781178
 21
4996.6994414797
 31
0.0
  0
ARC
  5
140
330
1F
100
AcDbEntity
  8
0
  6
Continuous
 62
     7
370
    25
100
AcDbCircle
 10
7202.5726311114
 20
5043.1994545927
 30
0.0
 40
3.0
100
AcDbArc
 50
6.654425046
 51
90.0
  0
ARC
  5
141
330
1F
100
AcDbEntity
  8
0
  6
Continuous
 62
     7
370
    25
100
AcDbCircle
 10
7154.1211509073
 20
4919.1994545927
 30
0.0
 40
3.000000000000332
100
AcDbArc
 50
185.8481280261
 51
270.0
  0
ARC
  5
142
330
1F
100
AcDbEntity
  8
0
  6
Continuous
 62
     7
370
    25
100
AcDbCircle
 10
7202.3648066397
 20
4919.1994545927
 30
0.0
 40
3.000000000000332
100
AcDbArc
 50
270.0
 51
354.1518719739
  0
ARC
  5
143
330
1F
100
AcDbEntity
  8
0
  6
Continuous
 62
     7
370
    25
100
AcDbCircle
 10
7121.2429787735
 20
5047.1994545927
 30
0.0
 40
3.000000000000909
100
AcDbArc
 50
90.0
 51
180.0
  0
ARC
  5
144
330
1F
100
AcDbEntity
  8
0
  6
Continuous
 62
     7
370
    25
100
AcDbCircle
 10
7121.2429787735
 20
5001.1994545927
 30
0.0
 40
3.000000000000909
100
AcDbArc
 50
180.0
 51
270.0
  0
LINE
  5
145
330
1F
100
AcDbEntity
  8
0
  6
Continuous
 62
     7
370
    25
100
AcDbLine
 10
7130.2429774622
 20
5050.199453043
 30
0.0
 11
7121.2429815749
 21
5050.199453043
 31
0.0
  0
LINE
  5
146
330
1F
100
AcDbEntity
  8
0
  6
Continuous
 62
     7
370
    25
100
AcDbLine
 10
7121.2429815749
 20
4998.1994519701
 30
0.0
 11
7130.2429774622
 21
4998.1994519701
 31
0.0
  0
LINE
  5
147
330
1F
100
AcDbEntity
  8
0
  6
Continuous
 62
     7
370
    25
100
AcDbLine
 10
7203.2429787176
 20
5048.6994574537
 30
0.0
 11
7201.2429787972
 21
5052.6994506588
 31
0.0
  0
LINE
  5
148
330
1F
100
AcDbEntity
  8
0
  6
Continuous
 62
     7
370
    25
100
AcDbLine
 10
7155.2429796974
 20
5052.6994506588
 30
0.0
 11
7153.2429793695
 21
5048.6994574537
 31
0.0
  0
LINE
  5
149
330
1F
100
AcDbEntity
  8
0
  6
Continuous
 62
     7
370
    25
100
AcDbLine
 10
7155.2429796974
 20
5059.6994499435
 30
0.0
 11
7155.2429796974
 21
5052.6994506588
 31
0.0
  0
LINE
  5
14A
330
1F
100
AcDbEntity
  8
0
  6
Continuous
 62
     7
370
    25
100
AcDbLine
 10
7201.2429787972
 20
5052.6994506588
 30
0.0
 11
7201.2429787972
 21
5059.6994499435
 31
0.0
  0
ARC
  5
14B
330
1F
100
AcDbEntity
  8
0
  6
Continuous
 62
     7
370
    25
100
AcDbCircle
 10
7158.2429787735
 20
5059.6994545927
 30
0.0
 40
3.000000000000909
100
AcDbArc
 50
90.0
 51
180.0
  0
ARC
  5
14C
330
1F
100
AcDbEntity
  8
0
  6
Continuous
 62
     7
370
    25
100
AcDbCircle
 10
7198.2429787735
 20
5059.6994545927
 30
0.0
 40
3.0
100
AcDbArc
 50
0.0
 51
90.0
  0
LINE
  5
14D
330
1F
100
AcDbEntity
  8
0
  6
Continuous
 62
     7
370
    25
100
AcDbLine
 10
7134.2429781178
 20
5002.1994600763
 30
0.0
 11
7146.1378225902
 21
5002.1994600763
 31
0.0
  0
LINE
  5
14E
330
1F
100
AcDbEntity
  8
0
  6
Continuous
 62
     7
370
    25
100
AcDbLine
 10
7151.2429790417
 20
5046.1994598379
 30
0.0
 11
7134.2429781178
 21
5046.1994598379
 31
0.0
  0
LINE
  5
14F
330
1F
100
AcDbEntity
  8
0
  6
Continuous
 62
     7
370
    25
100
AcDbLine
 10
7162.2429789821
 20
5048.6994574537
 30
0.0
 11
7162.2429789821
 21
5046.1994598379
 31
0.0
  0
LINE
  5
150
330
1F
100
AcDbEntity
  8
0
  6
Continuous
 62
     7
370
    25
100
AcDbLine
 10
7194.2429786394
 20
5046.1994598379
 30
0.0
 11
7194.2429786394
 21
5048.6994574537
 31
0.0
  0
LINE
  5
151
330
1F
100
AcDbEntity
  8
0
  6
Continuous
 62
     7
370
    25
100
AcDbLine
 10
6993.2429829458
 20
5064.1994516125
 30
0.0
 11
6978.2429823498
 21
5064.1994516125
 31
0.0
  0
LINE
  5
152
330
1F
100
AcDbEntity
  8
0
  6
Continuous
 62
     7
370
    25
100
AcDbLine
 10
6978.2429823498
 20
4984.1994534006
 30
0.0
 11
6993.2429829458
 21
4984.1994534006
 31
0.0
  0
ARC
  5
153
330
1F
100
AcDbEntity
  8
0
  6
Continuous
 62
     7
370
    25
100
AcDbCircle
 10
6993.2429787735
 20
5044.1994545927
 30
0.0
 40
20.00000000000091
100
AcDbArc
 50
0.0
 51
90.0
  0
ARC
  5
154
330
1F
100
AcDbEntity
  8
0
  6
Continuous
 62
     7
370
    25
100
AcDbCircle
 10
6993.2429787735
 20
5004.1994545927
 30
0.0
 40
20.0
100
AcDbArc
 50
270.0
 51
0.0
  0
LINE
  5
155
330
1F
100
AcDbEntity
  8
0
  6
Continuous
 62
     7
370
    25
100
AcDbLine
 10
6978.2429823498
 20
5044.1994557848
 30
0.0
 11
6968.2429769853
 21
5044.1994557848
 31
0.0
  0
LINE
  5
156
330
1F
100
AcDbEntity
  8
0
  6
Continuous
 62
     7
370
    25
100
AcDbLine
 10
6968.2429769853
 20
5004.1994641294
 30
0.0
 11
6978.2429823498
 21
5004.1994641294
 31
0.0
  0
LINE
  5
157
330
1F
100
AcDbEntity
  8
0
  6
Continuous
 62
     7
370
    25
100
AcDbLine
 10
7118.2429754952
 20
5044.1994557848
 30
0.0
 11
7013.2429787735
 21
5044.1994557848
 31
0.0
  0
LINE
  5
158
330
1F
100
AcDbEntity
  8
0
  6
Continuous
 62
     7
370
    25
100
AcDbLine
 10
7013.2429787735
 20
5004.1994641294
 30
0.0
 11
7118.2429754952
 21
5004.1994641294
 31
0.0
  0
LINE
  5
159
330
1F
100
AcDbEntity
  8
0
  6
Continuous
 62
     7
370
    25
100
AcDbLine
 10
7143.2429777304
 20
5132.999453949
 30
0.0
 11
7146.2429800848
 21
5125.9994546642
 31
0.0
  0
LINE
  5
15A
330
1F
100
AcDbEntity
  8
0
  6
Continuous
 62
     7
370
    25
100
AcDbLine
 10
7210.242978468
 20
5125.9994546642
 30
0.0
 11
7213.2429789597
 21
5132.999453949
 31
0.0
  0
LINE
  5
15B
330
1F
100
AcDbEntity
  8
0
  6
Continuous
 62
     7
370
    25
100
AcDbLine
 10
7146.2429800848
 20
5125.9994546642
 30
0.0
 11
7150.7539415578
 21
5121.4885006418
 31
0.0
  0
LINE
  5
15C
330
1F
100
AcDbEntity
  8
0
  6
Continuous
 62
     7
370
    25
100
AcDbLine
 10
7204.7429789635
 20
5120.4994509687
 30
0.0
 11
7210.242978468
 21
5125.9994546642
 31
0.0
  0
LINE
  5
15D
330
1F
100
AcDbEntity
  8
0
  6
Continuous
 62
     7
370
    25
100
AcDbLine
 10
7148.7429777006
 20
5095.9994534721
 30
0.0
 11
7148.7429777006
 21
5092.9994473924
 31
0.0
  0
LINE
  5
15E
330
1F
100
AcDbEntity
  8
0
  6
Continuous
 62
     7
370
    25
100
AcDbLine
 10
7207.7429789895
 20
5092.9994473924
 30
0.0
 11
7207.7429789895
 21
5095.9994534721
 31
0.0
  0
LINE
  5
15F
330
1F
100
AcDbEntity
  8
0
  6
Continuous
 62
     7
370
    25
100
AcDbLine
 10
7151.742980055
 20
5096.5374151935
 30
0.0
 11
7151.742980055
 21
5095.9994534721
 31
0.0
  0
LINE
  5
160
330
1F
100
AcDbEntity
  8
0
  6
Continuous
 62
     7
370
    25
100
AcDbLine
 10
7204.7429789635
 20
5095.9994534721
 30
0.0
 11
7204.7429789635
 21
5120.4994509687
 31
0.0
  0
LINE
  5
161
330
1F
100
AcDbEntity
  8
0
  6
Continuous
 62
     7
370
    25
100
AcDbLine
 10
7072.7429726938
 20
5145.0349951854
 30
0.0
 11
7072.7429726938
 21
5151.1272678842
 31
0.0
  0
LINE
  5
162
330
1F
100
AcDbEntity
  8
0
  6
Continuous
 62
     7
370
    25
100
AcDbLine
 10
7072.7429726938
 20
5138.9994512071
 30
0.0
 11
7072.7429726938
 21
5145.0349951854
 31
0.0
  0
LINE
  5
163
330
1F
100
AcDbEntity
  8
0
  6
Continuous
 62
     7
370
    25
100
AcDbLine
 10
7047.7429816345
 20
5144.4820503464
 30
0.0
 11
7047.7429816345
 21
5138.9994512071
 31
0.0
  0
ARC
  5
164
330
1F
100
AcDbEntity
  8
0
  6
Continuous
 62
     7
370
    25
100
AcDbCircle
 10
7090.2429787735
 20
5138.9994545927
 30
0.0
 40
17.50000000000091
100
AcDbArc
 50
180.0
 51
270.0
  0
ARC
  5
165
330
1F
100
AcDbEntity
  8
0
  6
Continuous
 62
     7
370
    25
100
AcDbCircle
 10
7090.2429787735
 20
5138.9994545927
 30
0.0
 40
42.5
100
AcDbArc
 50
180.0
 51
270.0
  0
LINE
  5
166
330
1F
100
AcDbEntity
  8
0
  6
Continuous
 62
     7
370
    25
100
AcDbLine
 10
7150.7558712581
 20
5121.4994529953
 30
0.0
 11
7090.2429783562
 21
5121.4994529953
 31
0.0
  0
LINE
  5
167
330
1F
100
AcDbEntity
  8
0
  6
Continuous
 62
     7
370
    25
100
AcDbLine
 10
7090.2429783562
 20
5096.499461936
 30
0.0
 11
7151.7608651737
 21
5096.499461936
 31
0.0
  0
LINE
  5
168
330
1F
100
AcDbEntity
  8
0
  6
Continuous
 62
     7
370
    25
100
AcDbLine
 10
7148.2429804126
 20
5092.9994473924
 30
0.0
 11
7150.2429770151
 21
5088.9994541874
 31
0.0
  0
LINE
  5
169
330
1F
100
AcDbEntity
  8
0
  6
Continuous
 62
     7
370
    25
100
AcDbLine
 10
7206.2429787437
 20
5088.9994541874
 30
0.0
 11
7208.2429786058
 21
5092.9994473924
 31
0.0
  0
ARC
  5
16A
330
1F
100
AcDbEntity
  8
0
  6
Continuous
 62
     7
370
    25
100
AcDbCircle
 10
7153.2429787735
 20
5081.9994545927
 30
0.0
 40
3.0
100
AcDbArc
 50
180.0
 51
270.0
  0
ARC
  5
16B
330
1F
100
AcDbEntity
  8
0
  6
Continuous
 62
     7
370
    25
100
AcDbCircle
 10
7203.2429787735
 20
5081.9994545927
 30
0.0
 40
3.000000000000909
100
AcDbArc
 50
270.0
 51
0.0
  0
LINE
  5
16C
330
1F
100
AcDbEntity
  8
0
  6
Continuous
 62
     7
370
    25
100
AcDbLine
 10
7150.2429770151
 20
5088.9994541874
 30
0.0
 11
7150.2429770151
 21
5081.9994549026
 31
0.0
  0
LINE
  5
16D
330
1F
100
AcDbEntity
  8
0
  6
Continuous
 62
     7
370
    25
100
AcDbLine
 10
7206.2429787437
 20
5081.9994549026
 30
0.0
 11
7206.2429787437
 21
5088.9994541874
 31
0.0
  0
LINE
  5
16E
330
1F
100
AcDbEntity
  8
0
  6
Continuous
 62
     7
370
    25
100
AcDbLine
 10
7162.2429789821
 20
5078.999448823
 30
0.0
 11
7162.2429789821
 21
5062.6994560232
 31
0.0
  0
LINE
  5
16F
330
1F
100
AcDbEntity
  8
0
  6
Continuous
 62
     7
370
    25
100
AcDbLine
 10
7162.2429789821
 20
5048.6994574537
 30
0.0
 11
7162.2429789821
 21
5046.1994598379
 31
0.0
  0
LINE
  5
170
330
1F
100
AcDbEntity
  8
0
  6
Continuous
 62
     7
370
    25
100
AcDbLine
 10
7194.2429786394
 20
5046.1994598379
 30
0.0
 11
7194.2429786394
 21
5048.6994574537
 31
0.0
  0
LINE
  5
171
330
1F
100
AcDbEntity
  8
0
  6
Continuous
 62
     7
370
    25
100
AcDbLine
 10
7194.2429786394
 20
5062.6994560232
 30
0.0
 11
7194.2429786394
 21
5078.999448823
 31
0.0
  0
LINE
  5
172
330
1F
100
AcDbEntity
  8
0
  6
Continuous
 62
     7
370
    25
100
AcDbLine
 10
6990.5073830704
 20
5129.2683372965
 30
0.0
 11
7338.4549060682
 21
5221.7557879855
 31
0.0
  0
SPLINE
  5
173
330
1F
100
AcDbEntity
  8
0
  6
Continuous
 62
     7
370
    25
100
AcDbSpline
210
0.0
220
0.0
230
1.0
 70
     8
 71
     3
 72
    11
 73
     7
 74
     0
 42
0.000000001
 43
0.00000001
 40
0.0
 40
0.0
 40
0.0
 40
0.0
 40
0.2461648949833032
 40
0.4812673173787562
 40
0.7268238718637954
 40
1.0
 40
1.0
 40
1.0
 40
1.0
 10
7334.665242753392
 20
5156.279247509466
 30
0.0
 10
7335.215684597775
 20
5156.6863772124
 30
0.0
 10
7336.29183182761
 20
5157.482340503467
 30
0.0
 10
7337.916322532077
 20
5158.740378254542
 30
0.0
 10
7339.421327297289
 20
5159.929524817314
 30
0.0
 10
7340.249357255136
 20
5160.60975047611
 30
0.0
 10
7340.685416183835
 20
5160.967972384916
 30
0.0
  0
LINE
  5
174
330
1F
100
AcDbEntity
  8
0
  6
Continuous
 62
     7
370
    25
100
AcDbLine
 10
7144.242979757
 20
4986.1994574537
 30
0.0
 11
7212.2429787958
 21
4986.1994574537
 31
0.0
  0
SPLINE
  5
175
330
1F
100
AcDbEntity
  8
0
  6
Continuous
 62
     7
370
    25
100
AcDbSpline
210
0.0
220
0.0
230
1.0
 70
     8
 71
     3
 72
    26
 73
    22
 74
     0
 42
0.000000001
 43
0.00000001
 40
0.0
 40
0.0
 40
0.0
 40
0.0
 40
0.0518149911824966
 40
0.11138078229041
 40
0.172281663839462
 40
0.2246887655496169
 40
0.2783592681347042
 40
0.31941811788779
 40
0.3616215560811006
 40
0.4027069830680189
 40
0.444949200082276
 40
0.5015056306406896
 40
0.5596411933420004
 40
0.6344162208204369
 40
0.7113476911591599
 40
0.7733910629724985
 40
0.837063115644717
 40
0.8877153637171632
 40
0.9397479449494565
 40
0.9904520576766865
 40
1.0
 40
1.0
 40
1.0
 40
1.0
 10
7153.02122401393
 20
5043.547097848878
 30
0.0
 10
7153.348338470765
 20
5043.029079957456
 30
0.0
 10
7154.051499144335
 20
5041.915555923766
 30
0.0
 10
7155.311072970786
 20
5039.721456219122
 30
0.0
 10
7156.572976296907
 20
5037.185656587885
 30
0.0
 10
7157.672400303415
 20
5034.412987913698
 30
0.0
 10
7158.414624557458
 20
5031.715150816957
 30
0.0
 10
7158.790638884956
 20
5029.028255074855
 30
0.0
 10
7158.814381595173
 20
5026.49759756708
 30
0.0
 10
7158.494432904429
 20
5023.932407066958
 30
0.0
 10
7157.795029806078
 20
5021.144221899453
 30
0.0
 10
7156.659283773361
 20
5018.175391736465
 30
0.0
 10
7154.998391166292
 20
5014.861368350943
 30
0.0
 10
7152.98505113334
 20
5011.53181972124
 30
0.0
 10
7150.944849922122
 20
5008.550395664693
 30
0.0
 10
7149.172313078157
 20
5006.131402886193
 30
0.0
 10
7147.856057916294
 20
5004.410371015306
 30
0.0
 10
7146.889485151339
 20
5003.177541727131
 30
0.0
 10
7146.325097663527
 20
5002.468167134429
 30
0.0
 10
7146.072693723498
 20
5002.153308548016
 30
0.0
 10
7146.12894255329
 20
5002.223554741287
 30
0.0
 10
7146.13785611785
 20
5002.234686421381
 30
0.0
  0
LINE
  5
176
330
1F
100
AcDbEntity
  8
0
  6
Continuous
 62
     7
370
    25
100
AcDbLine
 10
7134.2429781178
 20
5051.6994486322
 30
0.0
 11
7134.2429781178
 21
4996.6994414797
 31
0.0
  0
LINE
  5
177
330
1F
100
AcDbEntity
  8
0
  6
Continuous
 62
     7
370
    25
100
AcDbLine
 10
7130.2429774622
 20
5050.199453043
 30
0.0
 11
7130.2429774622
 21
4998.1994519701
 31
0.0
  0
ARC
  5
178
330
1F
100
AcDbEntity
  8
0
  6
Continuous
 62
     7
370
    25
100
AcDbCircle
 10
7155.8742423907
 20
5043.3407751924
 30
0.0
 40
2.860468999471172
100
AcDbArc
 50
92.0238675836
 51
175.8637231052
  0
LINE
  5
179
330
1F
100
AcDbEntity
  8
0
  6
Continuous
 62
     7
370
    25
100
AcDbLine
 10
7155.7732226173
 20
5046.1994598379
 30
0.0
 11
7202.572631122
 21
5046.1994598379
 31
0.0
  0
LINE
  5
17A
330
1F
100
AcDbEntity
  8
0
  6
Continuous
 62
     7
370
    25
100
AcDbLine
 10
7154.1211495022
 20
4916.1994646063
 30
0.0
 11
7202.3648066059
 21
4916.1994646063
 31
0.0
  0
LINE
  5
17B
330
1F
100
AcDbEntity
  8
0
  6
Continuous
 62
     7
370
    25
100
AcDbLine
 10
7118.2429754952
 20
5047.1994618645
 30
0.0
 11
7118.2429754952
 21
5001.1994431486
 31
0.0
  0
LINE
  5
17C
330
1F
100
AcDbEntity
  8
0
  6
Continuous
 62
     7
370
    25
100
AcDbLine
 10
7155.2429796974
 20
5052.6994506588
 30
0.0
 11
7201.2429787972
 21
5052.6994506588
 31
0.0
  0
LINE
  5
17D
330
1F
100
AcDbEntity
  8
0
  6
Continuous
 62
     7
370
    25
100
AcDbLine
 10
7153.2429793695
 20
5048.6994574537
 30
0.0
 11
7203.2429787176
 21
5048.6994574537
 31
0.0
  0
LINE
  5
17E
330
1F
100
AcDbEntity
  8
0
  6
Continuous
 62
     7
370
    25
100
AcDbLine
 10
7158.2429783264
 20
5062.6994560232
 30
0.0
 11
7198.2429785965
 21
5062.6994560232
 31
0.0
  0
SPLINE
  5
17F
330
1F
100
AcDbEntity
  8
0
  6
Continuous
 62
     7
370
    25
100
AcDbSpline
210
0.0
220
0.0
230
1.0
 70
     8
 71
     3
 72
    11
 73
     7
 74
     0
 42
0.000000001
 43
0.00000001
 40
0.0
 40
0.0
 40
0.0
 40
0.0
 40
0.1561474003203551
 40
0.4307962145708497
 40
0.7130078855007709
 40
1.0
 40
1.0
 40
1.0
 40
1.0
 10
7151.242979041701
 20
5046.1994598379
 30
0.0
 10
7151.252445431839
 20
5046.185944114178
 30
0.0
 10
7151.278562325419
 20
5046.148655484302
 30
0.0
 10
7151.562385641597
 20
5045.739854044747
 30
0.0
 10
7152.145634704252
 20
5044.891371373652
 30
0.0
 10
7152.7277313361
 20
5043.997690874811
 30
0.0
 10
7153.02122401393
 20
5043.547097848878
 30
0.0
  0
SPLINE
  5
180
330
1F
100
AcDbEntity
  8
0
  6
Continuous
 62
     7
370
    25
100
AcDbSpline
210
0.0
220
0.0
230
1.0
 70
    24
 71
     3
 72
    12
 73
     8
 74
     0
 42
0.000000001
 43
0.00000001
 40
0.0
 40
0.0
 40
0.0
 40
0.0
 40
0.0026572796482718
 40
0.0516699305077888
 40
0.3670806065836911
 40
0.7311420027489973
 40
1.0
 40
1.0
 40
1.0
 40
1.0
 10
7151.242979041701
 20
5046.1994598379
 30
0.0
 10
7151.246375117186
 20
5046.1994598379
 30
0.0
 10
7151.312410690242
 20
5046.1994598379
 30
0.0
 10
7151.7927448589
 20
5046.199459837899
 30
0.0
 10
7152.880143686185
 20
5046.1994598379
 30
0.0
 10
7154.473359432566
 20
5046.1994598379
 30
0.0
 10
7155.385678400533
 20
5046.1994598379
 30
0.0
 10
7155.773222617274
 20
5046.1994598379
 30
0.0
  0
LINE
  5
181
330
1F
100
AcDbEntity
  8
0
  6
Continuous
 62
     7
370
    25
100
AcDbLine
 10
6978.2429823498
 20
5064.1994516125
 30
0.0
 11
6978.2429823498
 21
4984.1994534006
 31
0.0
  0
LINE
  5
182
330
1F
100
AcDbEntity
  8
0
  6
Continuous
 62
     7
370
    25
100
AcDbLine
 10
7013.2429787735
 20
5044.1994557848
 30
0.0
 11
7013.2429787735
 21
5004.1994641294
 31
0.0
  0
LINE
  5
183
330
1F
100
AcDbEntity
  8
0
  6
Continuous
 62
     7
370
    25
100
AcDbLine
 10
6968.2429769853
 20
5044.1994557848
 30
0.0
 11
6968.2429769853
 21
5004.1994641294
 31
0.0
  0
LINE
  5
184
330
1F
100
AcDbEntity
  8
0
  6
Continuous
 62
     7
370
    25
100
AcDbLine
 10
7178.2429778794
 20
5125.9994546642
 30
0.0
 11
7210.242978468
 21
5125.9994546642
 31
0.0
  0
LINE
  5
185
330
1F
100
AcDbEntity
  8
0
  6
Continuous
 62
     7
370
    25
100
AcDbLine
 10
7146.2429800848
 20
5125.9994546642
 30
0.0
 11
7178.2429778794
 21
5125.9994546642
 31
0.0
  0
SPLINE
  5
186
330
1F
100
AcDbEntity
  8
0
  6
Continuous
 62
     7
370
    25
100
AcDbSpline
210
0.0
220
0.0
230
1.0
 70
     8
 71
     3
 72
    10
 73
     6
 74
     0
 42
0.000000001
 43
0.00000001
 40
0.0
 40
0.0
 40
0.0
 40
0.0
 40
0.4575031064958029
 40
0.9222005153046601
 40
1.0
 40
1.0
 40
1.0
 40
1.0
 10
7150.755971840983
 20
5121.490527199731
 30
0.0
 10
7150.818530755774
 20
5121.447497170132
 30
0.0
 10
7150.944632333314
 20
5121.360760457514
 30
0.0
 10
7151.667951198728
 20
5120.863994142789
 30
0.0
 10
7152.133046086713
 20
5120.545173097839
 30
0.0
 10
7152.199745349055
 20
5120.499450968729
 30
0.0
  0
LINE
  5
187
330
1F
100
AcDbEntity
  8
0
  6
Continuous
 62
     7
370
    25
100
AcDbLine
 10
7152.1997453491
 20
5120.4994509687
 30
0.0
 11
7204.7429789635
 21
5120.4994509687
 31
0.0
  0
LINE
  5
188
330
1F
100
AcDbEntity
  8
0
  6
Continuous
 62
     7
370
    25
100
AcDbLine
 10
7178.2429778794
 20
5095.9994534721
 30
0.0
 11
7207.7429789895
 21
5095.9994534721
 31
0.0
  0
LINE
  5
189
330
1F
100
AcDbEntity
  8
0
  6
Continuous
 62
     7
370
    25
100
AcDbLine
 10
7148.7429777006
 20
5095.9994534721
 30
0.0
 11
7178.2429778794
 21
5095.9994534721
 31
0.0
  0
SPLINE
  5
18A
330
1F
100
AcDbEntity
  8
0
  6
Continuous
 62
     7
370
    25
100
AcDbSpline
210
0.0
220
0.0
230
1.0
 70
     8
 71
     3
 72
    14
 73
    10
 74
     0
 42
0.000000001
 43
0.00000001
 40
0.0
 40
0.0
 40
0.0
 40
0.0
 40
0.1533531008091671
 40
0.3112234071434582
 40
0.4645391913236636
 40
0.6224051779548204
 40
0.7729384862124925
 40
0.9287239138932899
 40
1.0
 40
1.0
 40
1.0
 40
1.0
 10
7154.242977670794
 20
5103.522230195032
 30
0.0
 10
7154.086761481475
 20
5102.899417223362
 30
0.0
 10
7153.769727561494
 20
5101.635445552533
 30
0.0
 10
7153.222036340816
 20
5100.022059610007
 30
0.0
 10
7152.693160662127
 20
5098.643638348394
 30
0.0
 10
7152.238606538447
 20
5097.579097336313
 30
0.0
 10
7151.911577499637
 20
5096.857529411162
 30
0.0
 10
7151.748047149536
 20
5096.510197693886
 30
0.0
 10
7151.757802808804
 20
5096.530912637882
 30
0.0
 10
7151.760865173703
 20
5096.537415193544
 30
0.0
  0
SPLINE
  5
18B
330
1F
100
AcDbEntity
  8
0
  6
Continuous
 62
     7
370
    25
100
AcDbSpline
210
0.0
220
0.0
230
1.0
 70
     8
 71
     3
 72
    10
 73
     6
 74
     0
 42
0.000000001
 43
0.00000001
 40
0.0
 40
0.0
 40
0.0
 40
0.0
 40
0.18838985596677
 40
0.633274865365026
 40
0.9999999999999999
 40
0.9999999999999999
 40
0.9999999999999999
 40
0.9999999999999999
 10
7152.199745349055
 20
5120.499450968729
 30
0.0
 10
7152.305175700888
 20
5120.256255998986
 30
0.0
 10
7152.65958115186
 20
5119.438753055792
 30
0.0
 10
7153.444776839569
 20
5117.503492702726
 30
0.0
 10
7153.994559149685
 20
5115.418697233971
 30
0.0
 10
7154.242977670794
 20
5114.476684736238
 30
0.0
  0
LINE
  5
18C
330
1F
100
AcDbEntity
  8
0
  6
Continuous
 62
     7
370
    25
100
AcDbLine
 10
7154.2429776708
 20
5103.522230195
 30
0.0
 11
7154.2429776708
 21
5114.4766847362
 31
0.0
  0
LINE
  5
18D
330
1F
100
AcDbEntity
  8
0
  6
Continuous
 62
     7
370
    25
100
AcDbLine
 10
7148.2429804126
 20
5092.9994473924
 30
0.0
 11
7208.2429786058
 21
5092.9994473924
 31
0.0
  0
LINE
  5
18E
330
1F
100
AcDbEntity
  8
0
  6
Continuous
 62
     7
370
    25
100
AcDbLine
 10
7150.2429770151
 20
5088.9994541874
 30
0.0
 11
7206.2429787437
 21
5088.9994541874
 31
0.0
  0
LINE
  5
18F
330
1F
100
AcDbEntity
  8
0
  6
Continuous
 62
     7
370
    25
100
AcDbLine
 10
7153.2429793695
 20
5078.999448823
 30
0.0
 11
7203.2429787176
 21
5078.999448823
 31
0.0
  0
LINE
  5
190
330
1F
100
AcDbEntity
  8
0
  6
Continuous
 62
     7
370
    25
100
AcDbLine
 10
6978.2429823498
 20
5264.1994545927
 30
0.0
 11
6980.7429799656
 21
5264.1994545927
 31
0.0
  0
LINE
  5
191
330
1F
100
AcDbEntity
  8
0
  6
Continuous
 62
     7
370
    25
100
AcDbLine
 10
6978.2429823498
 20
5264.1994545927
 30
0.0
 11
6978.2429823498
 21
5510.0226740112
 31
0.0
  0
LINE
  5
192
330
1F
100
AcDbEntity
  8
0
  6
Continuous
 62
     7
370
    25
100
AcDbLine
 10
6980.7429799656
 20
5510.0226740112
 30
0.0
 11
6978.2429823498
 21
5510.0226740112
 31
0.0
  0
LINE
  5
193
330
1F
100
AcDbEntity
  8
0
  6
Continuous
 62
     7
370
    25
100
AcDbLine
 10
6980.7429799656
 20
5264.1994545927
 30
0.0
 11
6980.7429799656
 21
5510.0226740112
 31
0.0
  0
ELLIPSE
  5
194
330
1F
100
AcDbEntity
  8
0
  6
Continuous
 62
     7
370
    25
100
AcDbEllipse
 10
6980.7429787735
 20
5509.1994545927
 30
0.0
 11
2.0
 21
0.0
 31
0.0
210
0.0
220
0.0
230
1.0
 40
0.4116116523
 41
0.0
 42
1.570796326794897
  0
LINE
  5
195
330
1F
100
AcDbEntity
  8
0
  6
Continuous
 62
     7
370
    25
100
AcDbLine
 10
6982.7429840187
 20
5264.1994545927
 30
0.0
 11
6982.7429840187
 21
5509.1994593611
 31
0.0
  0
LINE
  5
196
330
1F
100
AcDbEntity
  8
0
  6
Continuous
 62
     7
370
    25
100
AcDbLine
 10
6980.7429799656
 20
5264.1994545927
 30
0.0
 11
6982.7429840187
 21
5264.1994545927
 31
0.0
  0
LINE
  5
197
330
1F
100
AcDbEntity
  8
0
  6
Continuous
 62
     7
370
    25
100
AcDbLine
 10
6978.2429823498
 20
5511.199448513
 30
0.0
 11
6980.7429799656
 21
5511.199448513
 31
0.0
  0
LINE
  5
198
330
1F
100
AcDbEntity
  8
0
  6
Continuous
 62
     7
370
    25
100
AcDbLine
 10
6980.7429799656
 20
5511.199448513
 30
0.0
 11
6980.7429799656
 21
5510.1994613876
 31
0.0
  0
LINE
  5
199
330
1F
100
AcDbEntity
  8
0
  6
Continuous
 62
     7
370
    25
100
AcDbLine
 10
6978.2429823498
 20
5510.1994613876
 30
0.0
 11
6980.7429799656
 21
5510.1994613876
 31
0.0
  0
LINE
  5
19A
330
1F
100
AcDbEntity
  8
0
  6
Continuous
 62
     7
370
    25
100
AcDbLine
 10
6978.2429823498
 20
5511.199448513
 30
0.0
 11
6978.2429823498
 21
5510.1994613876
 31
0.0
  0
ARC
  5
19B
330
1F
100
AcDbEntity
  8
0
  6
Continuous
 62
     7
370
    25
100
AcDbCircle
 10
6980.7429787735
 20
5509.1994545927
 30
0.0
 40
2.0
100
AcDbArc
 50
0.0
 51
90.0
  0
ARC
  5
19C
330
1F
100
AcDbEntity
  8
0
  6
Continuous
 62
     7
370
    25
100
AcDbCircle
 10
6980.7429787735
 20
5509.1994545927
 30
0.0
 40
1.0
100
AcDbArc
 50
51.4692122488
 51
90.0
  0
SPLINE
  5
19D
330
1F
100
AcDbEntity
  8
0
  6
Continuous
 62
     7
370
    25
100
AcDbSpline
210
0.0
220
0.0
230
1.0
 70
     8
 71
     3
 72
    11
 73
     7
 74
     0
 42
0.000000001
 43
0.00000001
 40
0.0
 40
0.0
 40
0.0
 40
0.0
 40
0.2500008606757394
 40
0.5000052169680034
 40
0.7500007051748696
 40
1.0
 40
1.0
 40
1.0
 40
1.0
 10
7338.242981753712
 20
5223.406750964151
 30
0.0
 10
7338.280865254724
 20
5223.193100304447
 30
0.0
 10
7338.35663278645
 20
5222.765795997687
 30
0.0
 10
7338.443732936999
 20
5222.224629538384
 30
0.0
 10
7338.488790540274
 20
5221.841776331526
 30
0.0
 10
7338.46620094956
 20
5221.78445091302
 30
0.0
 10
7338.454906068211
 20
5221.755787985549
 30
0.0
  0
LINE
  5
19E
330
1F
100
AcDbEntity
  8
0
  6
Continuous
 62
     7
370
    25
100
AcDbLine
 10
6990.0835195402
 20
5130.8629701605
 30
0.0
 11
7338.2429817537
 21
5223.4067509642
 31
0.0
  0
LINE
  5
19F
330
1F
100
AcDbEntity
  8
0
  6
Continuous
 62
     7
370
    25
100
AcDbLine
 10
6980.8429816583
 20
5126.6994516125
 30
0.0
 11
6980.8429816583
 21
5234.0994554331
 31
0.0
  0
LINE
  5
1A0
330
1F
100
AcDbEntity
  8
0
  6
Continuous
 62
     7
370
    25
100
AcDbLine
 10
7338.2429817537
 20
5234.0994554331
 30
0.0
 11
6980.8429816583
 21
5234.0994554331
 31
0.0
  0
LINE
  5
1A1
330
1F
100
AcDbEntity
  8
0
  6
Continuous
 62
     7
370
    25
100
AcDbLine
 10
7338.2429817537
 20
5234.0994554331
 30
0.0
 11
7338.2429817537
 21
5223.4067509642
 31
0.0
  0
LINE
  5
1A2
330
1F
100
AcDbEntity
  8
0
  6
Continuous
 62
     7
370
    25
100
AcDbLine
 10
6990.0835195402
 20
5130.8629701605
 30
0.0
 11
6990.5073830704
 21
5129.2683372965
 31
0.0
  0
LINE
  5
1A3
330
1F
100
AcDbEntity
  8
0
  6
Continuous
 62
     7
370
    25
100
AcDbLine
 10
6990.5073830704
 20
5129.2683372965
 30
0.0
 11
6980.8429816583
 21
5126.6994516125
 31
0.0
  0
LINE
  5
1A4
330
1F
100
AcDbEntity
  8
0
  6
Continuous
 62
     7
370
    25
100
AcDbLine
 10
6980.8429816583
 20
5234.0994554331
 30
0.0
 11
6980.8429816583
 21
5236.1994537284
 31
0.0
  0
LINE
  5
1A5
330
1F
100
AcDbEntity
  8
0
  6
Continuous
 62
     7
370
    25
100
AcDbLine
 10
7338.2429817537
 20
5236.1994537284
 30
0.0
 11
7338.2429817537
 21
5234.0994554331
 31
0.0
  0
LINE
  5
1A6
330
1F
100
AcDbEntity
  8
0
  6
Continuous
 62
     7
370
    25
100
AcDbLine
 10
6978.2429823498
 20
5126.6994516125
 30
0.0
 11
6978.2429823498
 21
5234.0994554331
 31
0.0
  0
LINE
  5
1A7
330
1F
100
AcDbEntity
  8
0
  6
Continuous
 62
     7
370
    25
100
AcDbLine
 10
6980.8429816583
 20
5126.6994516125
 30
0.0
 11
6978.2429823498
 21
5126.6994516125
 31
0.0
  0
LINE
  5
1A8
330
1F
100
AcDbEntity
  8
0
  6
Continuous
 62
     7
370
    25
100
AcDbLine
 10
6978.2429823498
 20
5234.0994554331
 30
0.0
 11
6980.8429816583
 21
5234.0994554331
 31
0.0
  0
LINE
  5
1A9
330
1F
100
AcDbEntity
  8
0
  6
Continuous
 62
     7
370
    25
100
AcDbLine
 10
6978.2429823498
 20
5236.1994537284
 30
0.0
 11
6978.2429823498
 21
5259.1994547044
 31
0.0
  0
LINE
  5
1AA
330
1F
100
AcDbEntity
  8
0
  6
Continuous
 62
     7
370
    25
100
AcDbLine
 10
7383.2429835419
 20
5259.1994547044
 30
0.0
 11
6978.2429823498
 21
5259.1994547044
 31
0.0
  0
LINE
  5
1AB
330
1F
100
AcDbEntity
  8
0
  6
Continuous
 62
     7
370
    25
100
AcDbLine
 10
7383.2429835419
 20
5236.1994537284
 30
0.0
 11
7383.2429835419
 21
5259.1994547044
 31
0.0
  0
LINE
  5
1AC
330
1F
100
AcDbEntity
  8
0
  6
Continuous
 62
     7
370
    25
100
AcDbLine
 10
6978.2429823498
 20
5236.1994537284
 30
0.0
 11
7383.2429835419
 21
5236.1994537284
 31
0.0
  0
ARC
  5
1AD
330
1F
100
AcDbEntity
  8
0
  6
Continuous
 62
     7
370
    25
100
AcDbCircle
 10
6983.2429787735
 20
5259.1994545927
 30
0.0
 40
5.0
100
AcDbArc
 50
90.0
 51
180.0
  0
LINE
  5
1AE
330
1F
100
AcDbEntity
  8
0
  6
Continuous
 62
     7
370
    25
100
AcDbLine
 10
6983.2429775814
 20
5264.1994545927
 30
0.0
 11
7383.2429835419
 21
5264.1994545927
 31
0.0
  0
LINE
  5
1AF
330
1F
100
AcDbEntity
  8
0
  6
Continuous
 62
     7
370
    25
100
AcDbLine
 10
7383.2429835419
 20
5259.1994547044
 30
0.0
 11
7383.2429835419
 21
5264.1994545927
 31
0.0
  0
LINE
  5
1B0
330
1F
100
AcDbEntity
  8
0
  6
Continuous
 62
     7
370
    25
100
AcDbLine
 10
7423.2429751972
 20
5259.1994547044
 30
0.0
 11
7383.2429835419
 21
5259.1994547044
 31
0.0
  0
LINE
  5
1B1
330
1F
100
AcDbEntity
  8
0
  6
Continuous
 62
     7
370
    25
100
AcDbLine
 10
7423.2429751972
 20
5259.1994547044
 30
0.0
 11
7423.2429751972
 21
5236.1994537284
 31
0.0
  0
LINE
  5
1B2
330
1F
100
AcDbEntity
  8
0
  6
Continuous
 62
     7
370
    25
100
AcDbLine
 10
7423.2429751972
 20
5236.1994537284
 30
0.0
 11
7383.2429835419
 21
5236.1994537284
 31
0.0
  0
LINE
  5
1B3
330
1F
100
AcDbEntity
  8
0
  6
Continuous
 62
     7
370
    25
100
AcDbLine
 10
7383.2429835419
 20
5264.1994545927
 30
0.0
 11
7418.2429799656
 21
5264.1994545927
 31
0.0
  0
ARC
  5
1B4
330
1F
100
AcDbEntity
  8
0
  6
Continuous
 62
     7
370
    25
100
AcDbCircle
 10
7418.2429787735
 20
5259.1994545927
 30
0.0
 40
5.0
100
AcDbArc
 50
0.0
 51
90.0
  0
LWPOLYLINE
  5
1B5
330
1F
100
AcDbEntity
  8
0
  6
Continuous
 62
     7
370
    25
100
AcDbPolyline
 90
       19
 70
   128
 43
0.0
 10
7282.7404552916
 20
5148.3726764788
 10
7286.8792081097
 20
5150.2966697087
 10
7290.9989992002
 20
5152.5368432274
 10
7295.0809264401
 20
5155.0829226842
 10
7299.1062888721
 20
5157.9232479205
 10
7303.0566388587
 20
5161.0447878709
 10
7306.9138565878
 20
5164.4332374205
 10
7310.6602618316
 20
5168.0730695596
 10
7314.2786959032
 20
5171.9475949874
 10
7317.7525589088
 20
5176.0390515199
 10
7321.0659289578
 20
5180.3286934962
 10
7324.2036217669
 20
5184.7968439331
 10
7327.1512577156
 20
5189.423028635
 10
7329.8953065494
 20
5194.1860507002
 10
7332.4232140402
 20
5199.0640650263
 10
7334.7233870844
 20
5204.0347086956
 10
7336.7852756599
 20
5209.0752090087
 10
7338.5994175295
 20
5214.1624542644
 10
7340.1575276474
 20
5219.2731241455
  0
ELLIPSE
  5
1B6
330
1F
100
AcDbEntity
  8
0
  6
Continuous
 62
     7
370
    25
100
AcDbEllipse
 10
7263.2429787735
 20
5254.1994545927
 30
0.0
 11
0.0
 21
121.2000000000007
 31
0.0
210
0.0
220
0.0
230
1.0
 40
0.3300330033
 41
3.141592653589793
 42
3.650744519561925
  0
LINE
  5
1B7
330
1F
100
AcDbEntity
  8
0
  6
Continuous
 62
     7
370
    25
100
AcDbLine
 10
7143.3901639501
 20
5132.999453949
 30
0.0
 11
7263.2429787735
 21
5132.999453949
 31
0.0
  0
SPLINE
  5
1B8
330
1F
100
AcDbEntity
  8
0
  6
Continuous
 62
     7
370
    25
100
AcDbSpline
210
0.0
220
0.0
230
1.0
 70
     8
 71
     3
 72
    22
 73
    18
 74
     0
 42
0.000000001
 43
0.00000001
 40
0.0
 40
0.0
 40
0.0
 40
0.0
 40
0.125
 40
0.125
 40
0.25
 40
0.25
 40
0.375
 40
0.375
 40
0.5
 40
0.5
 40
0.625
 40
0.625
 40
0.75
 40
0.75
 40
0.875
 40
0.875
 40
1.0
 40
1.0
 40
1.0
 40
1.0
 10
7322.320323720828
 20
5148.372673708194
 30
0.0
 10
7324.544774639099
 20
5149.614463900128
 30
0.0
 10
7326.684275938284
 20
5151.127644062506
 30
0.0
 10
7330.693797962605
 20
5154.710862984054
 30
0.0
 10
7332.563407320157
 20
5156.781110982429
 30
0.0
 10
7335.937897497944
 20
5161.453767407559
 30
0.0
 10
7337.442360182958
 20
5164.056159640318
 30
0.0
 10
7340.00909410862
 20
5169.725725534146
 30
0.0
 10
7341.071049503699
 20
5172.792621600764
 30
0.0
 10
7342.704528230625
 20
5179.285478332848
 30
0.0
 10
7343.275928205904
 20
5182.710948672674
 30
0.0
 10
7343.916173816105
 20
5189.788692151542
 30
0.0
 10
7343.98511919672
 20
5193.440383917309
 30
0.0
 10
7343.644854203016
 20
5200.828361741502
 30
0.0
 10
7343.23592518337
 20
5204.564120309778
 30
0.0
 10
7341.994890440305
 20
5211.985263509713
 30
0.0
 10
7341.163157216734
 20
5215.670284408178
 30
0.0
 10
7340.157522578583
 20
5219.273123954759
 30
0.0
  0
LWPOLYLINE
  5
1B9
330
1F
100
AcDbEntity
  8
0
  6
Continuous
 62
     7
370
    25
100
AcDbPolyline
 90
       11
 70
   128
 43
0.0
 10
7282.7404552916
 20
5148.3726764788
 10
7287.0415413598
 20
5146.717604505
 10
7291.321326218
 20
5145.4217548241
 10
7295.5586353163
 20
5144.4915349355
 10
7299.732480369
 20
5143.9315567484
 10
7303.8221934656
 20
5143.7445844283
 10
7307.8075388292
 20
5143.9315567484
 10
7311.6687798718
 20
5144.4915349355
 10
7315.386790953
 20
5145.4217548241
 10
7318.9431765894
 20
5146.717604505
 10
7322.3203236083
 20
5148.3726764788
  0
SPLINE
  5
1BA
330
1F
100
AcDbEntity
  8
0
  6
Continuous
 62
     7
370
    25
100
AcDbSpline
210
0.0
220
0.0
230
1.0
 70
     8
 71
     3
 72
    26
 73
    22
 74
     0
 42
0.000000001
 43
0.00000001
 40
0.0
 40
0.0
 40
0.0
 40
0.0
 40
0.125
 40
0.125
 40
0.2500000000000001
 40
0.2500000000000001
 40
0.3750000000000001
 40
0.3750000000000001
 40
0.5000000000000001
 40
0.5000000000000001
 40
0.5625000000000001
 40
0.5625000000000001
 40
0.6250000000000001
 40
0.6250000000000001
 40
0.6875000000000001
 40
0.6875000000000001
 40
0.7500000000000002
 40
0.7500000000000002
 40
0.8750000000000001
 40
0.8750000000000001
 40
1.0
 40
1.0
 40
1.0
 40
1.0
 10
7383.852370407792
 20
5242.248919918729
 30
0.0
 10
7383.410831190491
 20
5237.793072555564
 30
0.0
 10
7382.723578900575
 20
5233.367845708074
 30
0.0
 10
7380.856237792306
 20
5224.59038362771
 30
0.0
 10
7379.676053121892
 20
5220.23791729971
 30
0.0
 10
7376.808316837531
 20
5211.620160191044
 30
0.0
 10
7375.120410616103
 20
5207.354704535742
 30
0.0
 10
7371.2070641941
 20
5198.929068789794
 30
0.0
 10
7368.981104971576
 20
5194.768689478849
 30
0.0
 10
7365.200017007444
 20
5188.625294928163
 30
0.0
 10
7363.868511646397
 20
5186.598490014269
 30
0.0
 10
7361.067981458049
 20
5182.605757299912
 30
0.0
 10
7359.597945222606
 20
5180.637927486129
 30
0.0
 10
7356.512991257148
 20
5176.763480947516
 30
0.0
 10
7354.897898944764
 20
5174.85698726338
 30
0.0
 10
7351.515837561862
 20
5171.110931270532
 30
0.0
 10
7349.748310835133
 20
5169.270867699224
 30
0.0
 10
7344.241703177663
 20
5163.894206912993
 30
0.0
 10
7340.290301843083
 20
5160.489814053231
 30
0.0
 10
7331.780712087446
 20
5154.097321104082
 30
0.0
 10
7327.222331566475
 20
5151.10916957905
 30
0.0
 10
7322.320328165577
 20
5148.37267618943
 30
0.0
  0
SPLINE
  5
1BB
330
1F
100
AcDbEntity
  8
0
  6
Continuous
 62
     7
370
    25
100
AcDbSpline
210
0.0
220
0.0
230
1.0
 70
     8
 71
     3
 72
    23
 73
    19
 74
     0
 42
0.000000001
 43
0.00000001
 40
0.0
 40
0.0
 40
0.0
 40
0.0
 40
0.0720320320126596
 40
0.1496706884929044
 40
0.222683088386618
 40
0.2974694106056686
 40
0.3705941789702337
 40
0.4423425716531125
 40
0.5162534368740865
 40
0.5728423829692649
 40
0.63130033857028
 40
0.691628218588357
 40
0.7463977342608974
 40
0.8037119144906155
 40
0.8635713081254772
 40
0.9084434319839828
 40
0.9563950785439547
 40
1.0
 40
1.0
 40
1.0
 40
1.0
 10
7340.389017186528
 20
5160.735633479581
 30
0.0
 10
7342.04680810825
 20
5162.142628554137
 30
0.0
 10
7345.491424367135
 20
5165.066132384738
 30
0.0
 10
7350.266603509771
 20
5169.757778243562
 30
0.0
 10
7354.834353161974
 20
5174.729695556543
 30
0.0
 10
7359.017931989185
 20
5179.82822445889
 30
0.0
 10
7362.884142514697
 20
5185.098151921045
 30
0.0
 10
7366.439043407006
 20
5190.528637398487
 30
0.0
 10
7369.444567370209
 20
5195.702683498196
 30
0.0
 10
7372.012343403675
 20
5200.652372582652
 30
0.0
 10
7374.196683763729
 20
5205.333480092503
 30
0.0
 10
7376.152493618587
 20
5210.046791181169
 30
0.0
 10
7377.895069799804
 20
5214.798210878039
 30
0.0
 10
7379.436309755165
 20
5219.596986060362
 30
0.0
 10
7380.695260765716
 20
5224.171324655324
 30
0.0
 10
7381.711948840831
 20
5228.51861196551
 30
0.0
 10
7382.502982722192
 20
5232.426785146096
 30
0.0
 10
7382.912496231269
 20
5235.06833694446
 30
0.0
 10
7383.107531986599
 20
5236.326407896505
 30
0.0
  0
ARC
  5
1BC
330
1F
100
AcDbEntity
  8
0
  6
Continuous
 62
     7
370
    25
100
AcDbCircle
 10
7263.2429787735
 20
5254.1994545927
 30
0.0
 40
121.1999999999998
100
AcDbArc
 50
270.0
 51
299.1722530827
  0
LINE
  5
1BD
330
1F
100
AcDbEntity
  8
0
  6
Continuous
 62
     7
370
    25
100
AcDbLine
 10
7138.2429787735
 20
5132.999453949
 30
0.0
 11
7143.3901639501
 21
5132.999453949
 31
0.0
  0
ARC
  5
1BE
330
1F
100
AcDbEntity
  8
0
  6
Continuous
 62
     7
370
    25
100
AcDbCircle
 10
7138.2429787735
 20
5194.1994545927
 30
0.0
 40
61.20000000000073
100
AcDbArc
 50
218.7915287877
 51
270.0
  0
LINE
  5
1BF
330
1F
100
AcDbEntity
  8
0
  6
Continuous
 62
     8
370
    25
100
AcDbLine
 10
7151.1367635647
 20
4918.8937733641
 30
0.0
 11
7205.3491931254
 21
4918.8937733641
 31
0.0
  0
LINE
  5
1C0
330
1F
100
AcDbEntity
  8
0
  6
Continuous
 62
     8
370
    25
100
AcDbLine
 10
7205.5524207497
 20
5043.5470978489
 30
0.0
 11
7153.0212240139
 21
5043.5470978489
 31
0.0
  0
LINE
  5
1C1
330
1F
100
AcDbEntity
  8
0
  6
Continuous
 62
     8
370
    25
100
AcDbLine
 10
7121.2429815749
 20
5050.199453043
 30
0.0
 11
7121.2429815749
 21
4998.1994519701
 31
0.0
  0
LINE
  5
1C2
330
1F
100
AcDbEntity
  8
0
  6
Continuous
 62
     8
370
    25
100
AcDbLine
 10
7155.2429796974
 20
5059.6994499435
 30
0.0
 11
7201.2429787972
 21
5059.6994499435
 31
0.0
  0
LINE
  5
1C3
330
1F
100
AcDbEntity
  8
0
  6
Continuous
 62
     8
370
    25
100
AcDbLine
 10
6993.2429829458
 20
5064.1994516125
 30
0.0
 11
6993.2429829458
 21
4984.1994534006
 31
0.0
  0
LINE
  5
1C4
330
1F
100
AcDbEntity
  8
0
  6
Continuous
 62
     8
370
    25
100
AcDbLine
 10
7049.8232284406
 20
5145.0349951854
 30
0.0
 11
7072.7429726938
 21
5145.0349951854
 31
0.0
  0
LINE
  5
1C5
330
1F
100
AcDbEntity
  8
0
  6
Continuous
 62
     8
370
    25
100
AcDbLine
 10
7047.7429816345
 20
5138.9994512071
 30
0.0
 11
7072.7429726938
 21
5138.9994512071
 31
0.0
  0
LINE
  5
1C6
330
1F
100
AcDbEntity
  8
0
  6
Continuous
 62
     8
370
    25
100
AcDbLine
 10
7090.2429783562
 20
5096.499461936
 30
0.0
 11
7090.2429783562
 21
5121.4994529953
 31
0.0
  0
LINE
  5
1C7
330
1F
100
AcDbEntity
  8
0
  6
Continuous
 62
     8
370
    25
100
AcDbLine
 10
7150.2429770151
 20
5081.9994549026
 30
0.0
 11
7206.2429787437
 21
5081.9994549026
 31
0.0
  0
LINE
  5
1C8
330
1F
100
AcDbEntity
  8
0
  6
Continuous
 62
     8
370
    25
100
AcDbLine
 10
7340.1575276474
 20
5219.2731241455
 30
0.0
 11
7334.6935251573
 21
5220.7559796741
 31
0.0
  0
SPLINE
  5
1C9
330
1F
100
AcDbEntity
  8
0
  6
Continuous
 62
     8
370
    25
100
AcDbSpline
210
0.0
220
0.0
230
1.0
 70
     8
 71
     3
 72
    14
 73
    10
 74
     0
 42
0.000000001
 43
0.00000001
 40
0.0
 40
0.0
 40
0.0
 40
0.0
 40
0.1357051130861725
 40
0.2989609358271575
 40
0.4621812293149601
 40
0.6247054955335103
 40
0.7497513779187641
 40
0.8749640855897088
 40
1.0
 40
1.0
 40
1.0
 40
1.0
 10
7257.129796020155
 20
5200.13887088202
 30
0.0
 10
7258.434008371901
 20
5197.268137590746
 30
0.0
 10
7261.30721289845
 20
5190.943857747845
 30
0.0
 10
7265.57740788455
 20
5181.785217055442
 30
0.0
 10
7269.939287679776
 20
5172.662899404021
 30
0.0
 10
7273.777025424291
 20
5164.920491224151
 30
0.0
 10
7277.117610307067
 20
5158.459592975467
 30
0.0
 10
7280.02608714019
 20
5153.058068860715
 30
0.0
 10
7281.83609214618
 20
5149.933738190356
 30
0.0
 10
7282.740455291634
 20
5148.372676478849
 30
0.0
  0
SPLINE
  5
1CA
330
1F
100
AcDbEntity
  8
0
  6
Continuous
 62
     8
370
    25
100
AcDbSpline
210
0.0
220
0.0
230
1.0
 70
     8
 71
     3
 72
    16
 73
    12
 74
     0
 42
0.000000001
 43
0.00000001
 40
0.0
 40
0.0
 40
0.0
 40
0.0
 40
0.0565611820781845
 40
0.173568529398023
 40
0.2858170059160261
 40
0.4046796247495163
 40
0.5194357141060332
 40
0.6400828141568515
 40
0.7570581634770267
 40
0.880252551696107
 40
1.0
 40
1.0
 40
1.0
 40
1.0
 10
7375.182945452099
 20
5236.199453728424
 30
0.0
 10
7374.76058051277
 20
5235.814495305242
 30
0.0
 10
7373.464474973684
 20
5234.633178632994
 30
0.0
 10
7371.031691608464
 20
5232.745311799952
 30
0.0
 10
7367.756448921309
 20
5230.517725696311
 30
0.0
 10
7364.148796192162
 20
5228.39518334531
 30
0.0
 10
7360.104271040429
 20
5226.323508491419
 30
0.0
 10
7355.735435260776
 20
5224.377109893132
 30
0.0
 10
7350.905297775383
 20
5222.518360618513
 30
0.0
 10
7345.765203881999
 20
5220.797364747225
 30
0.0
 10
7342.008988244929
 20
5219.776375634563
 30
0.0
 10
7340.157527647381
 20
5219.273124145494
 30
0.0
  0
SPLINE
  5
1CB
330
1F
100
AcDbEntity
  8
0
  6
Continuous
 62
     8
370
    25
100
AcDbSpline
210
0.0
220
0.0
230
1.0
 70
     8
 71
     3
 72
    18
 73
    14
 74
     0
 42
0.000000001
 43
0.00000001
 40
0.0
 40
0.0
 40
0.0
 40
0.0
 40
0.0844286058488466
 40
0.1691566854420036
 40
0.2539008000268822
 40
0.3383512512930986
 40
0.4336296392791784
 40
0.5292745237235715
 40
0.6249541356265196
 40
0.720280132556893
 40
0.8178831248244829
 40
0.9159338234282164
 40
1.0
 40
1.0
 40
1.0
 40
1.0
 10
7143.390163950091
 20
5132.999453948961
 30
0.0
 10
7143.993365410268
 20
5133.078235516904
 30
0.0
 10
7145.201907925346
 20
5133.236078096124
 30
0.0
 10
7147.402534616214
 20
5134.470591311626
 30
0.0
 10
7149.87348154485
 20
5136.39182859341
 30
0.0
 10
7152.753039631005
 20
5139.161896862894
 30
0.0
 10
7156.080486047909
 20
5142.858447714052
 30
0.0
 10
7159.873040171695
 20
5147.519886118371
 30
0.0
 10
7163.968665877051
 20
5152.926765342027
 30
0.0
 10
7168.373800655466
 20
5159.058416601495
 30
0.0
 10
7173.092619824094
 20
5165.909153530101
 30
0.0
 10
7177.839144537781
 20
5173.004476434295
 30
0.0
 10
7181.089655984333
 20
5178.013421749606
 30
0.0
 10
7182.590110398298
 20
5180.325579153524
 30
0.0
  0
ARC
  5
1CC
330
1F
100
AcDbEntity
  8
0
  6
Continuous
 62
     8
370
    25
100
AcDbCircle
 10
7143.8945793791
 20
5189.7147209092
 30
0.0
 40
56.71751000616131
100
AcDbArc
 50
214.4731854274
 51
269.4904350315
  0
LINE
  5
1CD
330
1F
100
AcDbEntity
  8
0
  6
Continuous
 62
     7
370
    25
100
AcDbLine
 10
6339.2687571838
 20
4408.4117322089
 30
0.0
 11
6337.7610278919
 21
4409.2822207929
 31
0.0
  0
LINE
  5
1CE
330
1F
100
AcDbEntity
  8
0
  6
Continuous
 62
     7
370
    25
100
AcDbLine
 10
6330.2764838233
 20
4409.2822207929
 30
0.0
 11
6328.7687545314
 21
4408.4117322089
 31
0.0
  0
LINE
  5
1CF
330
1F
100
AcDbEntity
  8
0
  6
Continuous
 62
     7
370
    25
100
AcDbLine
 10
6339.2687571838
 20
4407.7117278101
 30
0.0
 11
6339.2687571838
 21
4408.4117322089
 31
0.0
  0
LINE
  5
1D0
330
1F
100
AcDbEntity
  8
0
  6
Continuous
 62
     7
370
    25
100
AcDbLine
 10
6328.7687545314
 20
4408.4117322089
 30
0.0
 11
6328.7687545314
 21
4407.7117278101
 31
0.0
  0
ARC
  5
1D1
330
1F
100
AcDbEntity
  8
0
  6
Continuous
 62
     7
370
    25
100
AcDbCircle
 10
6334.0187553361
 20
4414.4634103348
 30
0.0
 40
8.55264174159025
100
AcDbArc
 50
275.0341397737
 51
307.8680745983
  0
ARC
  5
1D2
330
1F
100
AcDbEntity
  8
0
  6
Continuous
 62
     7
370
    25
100
AcDbCircle
 10
6334.0187553361
 20
4414.4634103348
 30
0.0
 40
8.552641741590135
100
AcDbArc
 50
232.1319254017
 51
264.9658602264
  0
LINE
  5
1D3
330
1F
100
AcDbEntity
  8
0
  6
Continuous
 62
     7
370
    25
100
AcDbLine
 10
6294.018754889
 20
4509.2822148325
 30
0.0
 11
6294.018754889
 21
4519.2822201969
 31
0.0
  0
LINE
  5
1D4
330
1F
100
AcDbEntity
  8
0
  6
Continuous
 62
     7
370
    25
100
AcDbLine
 10
6254.0187557831
 20
4519.2822201969
 30
0.0
 11
6254.0187557831
 21
4509.2822148325
 31
0.0
  0
LINE
  5
1D5
330
1F
100
AcDbEntity
  8
0
  6
Continuous
 62
     7
370
    25
100
AcDbLine
 10
6288.3801620125
 20
4439.7822155477
 30
0.0
 11
6286.1505636617
 21
4439.7822155477
 31
0.0
  0
LINE
  5
1D6
330
1F
100
AcDbEntity
  8
0
  6
Continuous
 62
     7
370
    25
100
AcDbLine
 10
6286.1505636617
 20
4439.7822155477
 30
0.0
 11
6274.0187553361
 21
4439.7822155477
 31
0.0
  0
CIRCLE
  5
1D7
330
1F
100
AcDbEntity
  8
0
  6
Continuous
 62
     7
370
    25
100
AcDbCircle
 10
6274.0187553361
 20
4309.2822184087
 30
0.0
 40
35.00000000000091
  0
CIRCLE
  5
1D8
330
1F
100
AcDbEntity
  8
0
  6
Continuous
 62
     7
370
    25
100
AcDbCircle
 10
6274.0187553361
 20
4309.2822184087
 30
0.0
 40
35.16921944985916
  0
CIRCLE
  5
1D9
330
1F
100
AcDbEntity
  8
0
  6
Continuous
 62
     7
370
    25
100
AcDbCircle
 10
6274.0187553361
 20
4309.2822184087
 30
0.0
 40
24.9651254443952
  0
CIRCLE
  5
1DA
330
1F
100
AcDbEntity
  8
0
  6
Continuous
 62
     7
370
    25
100
AcDbCircle
 10
6274.0187553361
 20
4309.2822184087
 30
0.0
 40
22.00000000000091
  0
CIRCLE
  5
1DB
330
1F
100
AcDbEntity
  8
0
  6
Continuous
 62
     7
370
    25
100
AcDbCircle
 10
6274.0187553361
 20
4309.2822184087
 30
0.0
 40
20.50000000000091
  0
CIRCLE
  5
1DC
330
1F
100
AcDbEntity
  8
0
  6
Continuous
 62
     7
370
    25
100
AcDbCircle
 10
6274.0187553361
 20
4309.2822184087
 30
0.0
 40
19.48700763430497
  0
CIRCLE
  5
1DD
330
1F
100
AcDbEntity
  8
0
  6
Continuous
 62
     7
370
    25
100
AcDbCircle
 10
6274.0187553361
 20
4309.2822184087
 30
0.0
 40
5.700000000000728
  0
CIRCLE
  5
1DE
330
1F
100
AcDbEntity
  8
0
  6
Continuous
 62
     7
370
    25
100
AcDbCircle
 10
6274.0187553361
 20
4323.2822184087
 30
0.0
 40
5.0
  0
CIRCLE
  5
1DF
330
1F
100
AcDbEntity
  8
0
  6
Continuous
 62
     7
370
    25
100
AcDbCircle
 10
6286.1431109891
 20
4316.2822184087
 30
0.0
 40
5.0
  0
CIRCLE
  5
1E0
330
1F
100
AcDbEntity
  8
0
  6
Continuous
 62
     7
370
    25
100
AcDbCircle
 10
6286.1431109891
 20
4302.2822184087
 30
0.0
 40
5.0
  0
CIRCLE
  5
1E1
330
1F
100
AcDbEntity
  8
0
  6
Continuous
 62
     7
370
    25
100
AcDbCircle
 10
6274.0187553361
 20
4295.2822184087
 30
0.0
 40
5.000000000000909
  0
CIRCLE
  5
1E2
330
1F
100
AcDbEntity
  8
0
  6
Continuous
 62
     7
370
    25
100
AcDbCircle
 10
6261.8943996831
 20
4302.2822184087
 30
0.0
 40
5.000000000000909
  0
CIRCLE
  5
1E3
330
1F
100
AcDbEntity
  8
0
  6
Continuous
 62
     7
370
    25
100
AcDbCircle
 10
6261.8943996831
 20
4316.2822184087
 30
0.0
 40
5.0
  0
LINE
  5
1E4
330
1F
100
AcDbEntity
  8
0
  6
Continuous
 62
     7
370
    25
100
AcDbLine
 10
6339.2687571838
 20
4408.4117322089
 30
0.0
 11
6328.7687545314
 21
4408.4117322089
 31
0.0
  0
LINE
  5
1E5
330
1F
100
AcDbEntity
  8
0
  6
Continuous
 62
     7
370
    25
100
AcDbLine
 10
6339.2687571838
 20
4407.7117278101
 30
0.0
 11
6334.5808332458
 21
4407.7117278101
 31
0.0
  0
LINE
  5
1E6
330
1F
100
AcDbEntity
  8
0
  6
Continuous
 62
     7
370
    25
100
AcDbLine
 10
6334.5808332458
 20
4407.7117278101
 30
0.0
 11
6333.081806232
 21
4407.7117278101
 31
0.0
  0
LINE
  5
1E7
330
1F
100
AcDbEntity
  8
0
  6
Continuous
 62
     7
370
    25
100
AcDbLine
 10
6333.081806232
 20
4407.7117278101
 30
0.0
 11
6328.7687545314
 21
4407.7117278101
 31
0.0
  0
ARC
  5
1E8
330
1F
100
AcDbEntity
  8
0
  6
Continuous
 62
     7
370
    25
100
AcDbCircle
 10
6339.9938084995
 20
4407.3945567694
 30
0.0
 40
5.422259544379017
100
AcDbArc
 50
176.646611806
 51
195.5193414088
  0
LWPOLYLINE
  5
1E9
330
1F
100
AcDbEntity
  8
0
  6
Continuous
 62
     7
370
    25
100
AcDbPolyline
 90
        9
 70
   128
 43
0.0
 10
6333.081806232
 20
4407.7117278101
 10
6333.1240808263
 20
4406.9540335657
 10
6333.170248349
 20
4406.3978253724
 10
6333.2190720036
 20
4406.0580118419
 10
6333.2692442134
 20
4405.9437199356
 10
6333.3194126978
 20
4406.0580118419
 10
6333.3682363525
 20
4406.3978253724
 10
6333.4144076004
 20
4406.9540335657
 10
6333.4566784694
 20
4407.7117278101
  0
ARC
  5
1EA
330
1F
100
AcDbEntity
  8
0
  6
Continuous
 62
     7
370
    25
100
AcDbCircle
 10
6274.0187553361
 20
4309.2822184087
 30
0.0
 40
5.250000000000769
100
AcDbArc
 50
280.2804325224
 51
83.8540111189
  0
LWPOLYLINE
  5
1EB
330
1F
100
AcDbEntity
  8
0
  6
Continuous
 62
     7
370
    25
100
AcDbPolyline
 90
        9
 70
   128
 43
0.0
 10
6274.9557028662
 20
4304.116500807
 10
6274.9134295525
 20
4305.2876538457
 10
6274.8672615059
 20
4306.5667061927
 10
6274.8184373856
 20
4307.9193441989
 10
6274.7682672131
 20
4309.309272361
 10
6274.7180970407
 20
4310.6992023857
 10
6274.6692729786
 20
4312.0518385293
 10
6274.623104932
 20
4313.3308908762
 10
6274.5808316183
 20
4314.502043915
  0
ARC
  5
1EC
330
1F
100
AcDbEntity
  8
0
  6
Continuous
 62
     7
370
    25
100
AcDbCircle
 10
6274.0187553361
 20
4309.2822184087
 30
0.0
 40
5.250000000000449
100
AcDbArc
 50
100.2804325224
 51
263.8540111189
  0
LWPOLYLINE
  5
1ED
330
1F
100
AcDbEntity
  8
0
  6
Continuous
 62
     7
370
    25
100
AcDbPolyline
 90
        9
 70
   128
 43
0.0
 10
6273.0818078059
 20
4314.447935936
 10
6273.1240811197
 20
4313.2767828973
 10
6273.1702491662
 20
4311.9977305503
 10
6273.2190732865
 20
4310.6450944068
 10
6273.269243459
 20
4309.255164382
 10
6273.3194136315
 20
4307.8652343573
 10
6273.3682376936
 20
4306.5125982137
 10
6273.4144057401
 20
4305.2335458668
 10
6273.4566790538
 20
4304.062392828
  0
ARC
  5
1EE
330
1F
100
AcDbEntity
  8
0
  6
Continuous
 62
     7
370
    25
100
AcDbCircle
 10
6274.0187553361
 20
4309.2822184087
 30
0.0
 40
5.249999999999712
100
AcDbArc
 50
83.8540111189
 51
100.2804325224
  0
ARC
  5
1EF
330
1F
100
AcDbEntity
  8
0
  6
Continuous
 62
     7
370
    25
100
AcDbCircle
 10
6274.0187553361
 20
4309.2822184087
 30
0.0
 40
5.250000000000769
100
AcDbArc
 50
263.8540111189
 51
280.2804325224
  0
LINE
  5
1F0
330
1F
100
AcDbEntity
  8
0
  6
Continuous
 62
     7
370
    25
100
AcDbLine
 10
6294.018754889
 20
4519.2822201969
 30
0.0
 11
6254.0187557831
 21
4519.2822201969
 31
0.0
  0
LINE
  5
1F1
330
1F
100
AcDbEntity
  8
0
  6
Continuous
 62
     7
370
    25
100
AcDbLine
 10
6285.1990956485
 20
4319.2822172167
 30
0.0
 11
6282.1431105628
 21
4319.2822172167
 31
0.0
  0
LINE
  5
1F2
330
1F
100
AcDbEntity
  8
0
  6
Continuous
 62
     7
370
    25
100
AcDbLine
 10
6277.0187553621
 20
4319.2822172167
 30
0.0
 11
6271.01875531
 21
4319.2822172167
 31
0.0
  0
LINE
  5
1F3
330
1F
100
AcDbEntity
  8
0
  6
Continuous
 62
     7
370
    25
100
AcDbLine
 10
6265.8944001093
 20
4319.2822172167
 30
0.0
 11
6262.8384150236
 21
4319.2822172167
 31
0.0
  0
ARC
  5
1F4
330
1F
100
AcDbEntity
  8
0
  6
Continuous
 62
     7
370
    25
100
AcDbCircle
 10
6274.0187553361
 20
4427.2822184087
 30
0.0
 40
12.5
100
AcDbArc
 50
90.0
 51
140.703519761
  0
ARC
  5
1F5
330
1F
100
AcDbEntity
  8
0
  6
Continuous
 62
     7
370
    25
100
AcDbCircle
 10
6274.0187553361
 20
4309.2822184087
 30
0.0
 40
14.9999999999996
100
AcDbArc
 50
90.0
 51
109.4629509461
  0
ARC
  5
1F6
330
1F
100
AcDbEntity
  8
0
  6
Continuous
 62
     7
370
    25
100
AcDbCircle
 10
6274.0187553361
 20
4309.2822184087
 30
0.0
 40
14.99999999999966
100
AcDbArc
 50
130.5370490536
 51
169.4629509462
  0
ARC
  5
1F7
330
1F
100
AcDbEntity
  8
0
  6
Continuous
 62
     7
370
    25
100
AcDbCircle
 10
6274.0187553361
 20
4309.2822184087
 30
0.0
 40
15.00000000000031
100
AcDbArc
 50
190.5370490538
 51
229.4629509464
  0
ARC
  5
1F8
330
1F
100
AcDbEntity
  8
0
  6
Continuous
 62
     7
370
    25
100
AcDbCircle
 10
6274.0187553361
 20
4309.2822184087
 30
0.0
 40
15.00000000000091
100
AcDbArc
 50
250.5370490539
 51
289.4629509465
  0
ARC
  5
1F9
330
1F
100
AcDbEntity
  8
0
  6
Continuous
 62
     7
370
    25
100
AcDbCircle
 10
6274.0187553361
 20
4309.2822184087
 30
0.0
 40
15.00000000000024
100
AcDbArc
 50
310.5370490538
 51
349.4629509464
  0
ARC
  5
1FA
330
1F
100
AcDbEntity
  8
0
  6
Continuous
 62
     7
370
    25
100
AcDbCircle
 10
6274.0187553361
 20
4309.2822184087
 30
0.0
 40
14.9999999999998
100
AcDbArc
 50
10.5370490536
 51
49.4629509462
  0
ARC
  5
1FB
330
1F
100
AcDbEntity
  8
0
  6
Continuous
 62
     7
370
    25
100
AcDbCircle
 10
6274.0187553361
 20
4309.2822184087
 30
0.0
 40
14.99999999999909
100
AcDbArc
 50
70.5370490535
 51
90.0
  0
ELLIPSE
  5
1FC
330
1F
100
AcDbEntity
  8
0
  6
Continuous
 62
     7
370
    25
100
AcDbEllipse
 10
5978.518755336
 20
4506.7822184087
 30
0.0
 11
0.0
 21
2.0
 31
0.0
210
0.0
220
0.0
230
1.0
 40
0.4116116524
 41
1.570796326794897
 42
3.141592653589793
  0
LINE
  5
1FD
330
1F
100
AcDbEntity
  8
0
  6
Continuous
 62
     7
370
    25
100
AcDbLine
 10
5977.6955453351
 20
4506.7822172167
 30
0.0
 11
6570.341965337
 21
4506.7822172167
 31
0.0
  0
ELLIPSE
  5
1FE
330
1F
100
AcDbEntity
  8
0
  6
Continuous
 62
     7
370
    25
100
AcDbEllipse
 10
6569.5187553361
 20
4506.7822184087
 30
0.0
 11
0.0
 21
2.0
 31
0.0
210
0.0
220
0.0
230
1.0
 40
0.4116116524
 41
3.141592653572116
 42
4.712388980384695
  0
LINE
  5
1FF
330
1F
100
AcDbEntity
  8
0
  6
Continuous
 62
     7
370
    25
100
AcDbLine
 10
5978.5187450841
 20
4504.7822131635
 30
0.0
 11
6569.5187655881
 21
4504.7822131635
 31
0.0
  0
LINE
  5
200
330
1F
100
AcDbEntity
  8
0
  6
Continuous
 62
     7
370
    25
100
AcDbLine
 10
5977.6955453351
 20
4509.2822148325
 30
0.0
 11
5977.6955453351
 21
4506.7822172167
 31
0.0
  0
LINE
  5
201
330
1F
100
AcDbEntity
  8
0
  6
Continuous
 62
     7
370
    25
100
AcDbLine
 10
6570.341965337
 20
4506.7822172167
 30
0.0
 11
6570.341965337
 21
4509.2822148325
 31
0.0
  0
LINE
  5
202
330
1F
100
AcDbEntity
  8
0
  6
Continuous
 62
     7
370
    25
100
AcDbLine
 10
5977.6955453351
 20
4509.2822148325
 30
0.0
 11
6570.341965337
 21
4509.2822148325
 31
0.0
  0
LINE
  5
203
330
1F
100
AcDbEntity
  8
0
  6
Continuous
 62
     7
370
    25
100
AcDbLine
 10
6571.5187696412
 20
4506.7822172167
 30
0.0
 11
6570.5187527135
 21
4506.7822172167
 31
0.0
  0
LINE
  5
204
330
1F
100
AcDbEntity
  8
0
  6
Continuous
 62
     7
370
    25
100
AcDbLine
 10
6570.5187527135
 20
4509.2822148325
 30
0.0
 11
6570.5187527135
 21
4506.7822172167
 31
0.0
  0
LINE
  5
205
330
1F
100
AcDbEntity
  8
0
  6
Continuous
 62
     7
370
    25
100
AcDbLine
 10
6571.5187696412
 20
4509.2822148325
 30
0.0
 11
6570.5187527135
 21
4509.2822148325
 31
0.0
  0
LINE
  5
206
330
1F
100
AcDbEntity
  8
0
  6
Continuous
 62
     7
370
    25
100
AcDbLine
 10
6571.5187696412
 20
4509.2822148325
 30
0.0
 11
6571.5187696412
 21
4506.7822172167
 31
0.0
  0
ARC
  5
207
330
1F
100
AcDbEntity
  8
0
  6
Continuous
 62
     7
370
    25
100
AcDbCircle
 10
6569.5187553361
 20
4506.7822184087
 30
0.0
 40
2.0
100
AcDbArc
 50
270.0
 51
0.0
  0
ARC
  5
208
330
1F
100
AcDbEntity
  8
0
  6
Continuous
 62
     7
370
    25
100
AcDbCircle
 10
6569.5187553361
 20
4506.7822184087
 30
0.0
 40
0.9999999999990905
100
AcDbArc
 50
321.4692130183
 51
0.0
  0
LINE
  5
209
330
1F
100
AcDbEntity
  8
0
  6
Continuous
 62
     7
370
    25
100
AcDbLine
 10
5976.5187410309
 20
4506.7822172167
 30
0.0
 11
5977.5187579587
 21
4506.7822172167
 31
0.0
  0
ARC
  5
20A
330
1F
100
AcDbEntity
  8
0
  6
Continuous
 62
     7
370
    25
100
AcDbCircle
 10
5978.5187553361
 20
4506.7822184087
 30
0.0
 40
1.000000000000909
100
AcDbArc
 50
180.0
 51
218.530786564
  0
ARC
  5
20B
330
1F
100
AcDbEntity
  8
0
  6
Continuous
 62
     7
370
    25
100
AcDbCircle
 10
5978.5187553361
 20
4506.7822184087
 30
0.0
 40
2.0
100
AcDbArc
 50
180.0
 51
269.9999999995
  0
LINE
  5
20C
330
1F
100
AcDbEntity
  8
0
  6
Continuous
 62
     7
370
    25
100
AcDbLine
 10
5977.5187579587
 20
4506.7822172167
 30
0.0
 11
5977.5187579587
 21
4509.2822148325
 31
0.0
  0
LINE
  5
20D
330
1F
100
AcDbEntity
  8
0
  6
Continuous
 62
     7
370
    25
100
AcDbLine
 10
5976.5187410309
 20
4506.7822172167
 30
0.0
 11
5976.5187410309
 21
4509.2822148325
 31
0.0
  0
LINE
  5
20E
330
1F
100
AcDbEntity
  8
0
  6
Continuous
 62
     7
370
    25
100
AcDbLine
 10
5976.5187410309
 20
4509.2822148325
 30
0.0
 11
5977.5187579587
 21
4509.2822148325
 31
0.0
  0
LWPOLYLINE
  5
20F
330
1F
100
AcDbEntity
  8
0
  6
Continuous
 62
     7
370
    25
100
AcDbPolyline
 90
       21
 70
   128
 43
0.0
 10
6136.5187523558
 20
4400.7035775901
 10
6136.5804133608
 20
4400.5291893007
 10
6136.7649940446
 20
4400.0071196677
 10
6137.0713619187
 20
4399.1405798914
 10
6137.4976245358
 20
4397.934912038
 10
6138.0411592915
 20
4396.3975517871
 10
6138.6986283257
 20
4394.537976277
 10
6139.4659487202
 20
4392.3676445009
 10
6140.3384117081
 20
4389.899945152
 10
6141.3106379702
 20
4387.1500923158
 10
6142.3766223385
 20
4384.1350286128
 10
6143.529793401
 20
4380.8733581425
 10
6144.7630433037
 20
4377.3851900222
 10
6146.0687873557
 20
4373.6920117261
 10
6147.4389491274
 20
4369.8166145803
 10
6148.8650796607
 20
4365.7828776957
 10
6150.3384170725
 20
4361.6156711103
 10
6151.849849303
 20
4357.3406993272
 10
6153.3900631263
 20
4352.9843001486
 10
6154.9495739534
 20
4348.573347819
 10
6156.5187556341
 20
4344.1350332321
  0
LWPOLYLINE
  5
210
330
1F
100
AcDbEntity
  8
0
  6
Continuous
 62
     7
370
    25
100
AcDbPolyline
 90
       21
 70
   128
 43
0.0
 10
6411.5187583163
 20
4400.7035775901
 10
6411.4570973113
 20
4400.5291893007
 10
6411.2725166276
 20
4400.0071196677
 10
6410.9661487534
 20
4399.1405798914
 10
6410.5398861363
 20
4397.934912038
 10
6409.9963513806
 20
4396.3975517871
 10
6409.3388823464
 20
4394.537976277
 10
6408.5715619519
 20
4392.3676445009
 10
6407.699098964
 20
4389.899945152
 10
6406.7268727019
 20
4387.1500923158
 10
6405.6608883336
 20
4384.1350286128
 10
6404.5077172711
 20
4380.8733581425
 10
6403.2744673684
 20
4377.3851900222
 10
6401.9687233164
 20
4373.6920117261
 10
6400.5985615447
 20
4369.8166145803
 10
6399.1724310114
 20
4365.7828776957
 10
6397.6990935996
 20
4361.6156711103
 10
6396.1876613691
 20
4357.3406993272
 10
6394.6474475458
 20
4352.9843001486
 10
6393.0879367187
 20
4348.573347819
 10
6391.518755038
 20
4344.1350332321
  0
LINE
  5
211
330
1F
100
AcDbEntity
  8
0
  6
Continuous
 62
     7
370
    25
100
AcDbLine
 10
6156.5187556341
 20
4344.1350332321
 30
0.0
 11
6156.5187556341
 21
4224.2822184087
 31
0.0
  0
LWPOLYLINE
  5
212
330
1F
100
AcDbEntity
  8
0
  6
Continuous
 62
     7
370
    25
100
AcDbPolyline
 90
       10
 70
   128
 43
0.0
 10
6098.0263260796
 20
4204.7847418906
 10
6104.0443537428
 20
4206.7907511117
 10
6110.2302578881
 20
4208.8527216436
 10
6116.5642795756
 20
4210.9640597226
 10
6123.026138325
 20
4213.118007672
 10
6129.5951513245
 20
4215.3076811554
 10
6136.2503079369
 20
4217.5260691764
 10
6142.970329304
 20
4219.7660713317
 10
6149.7336832478
 20
4222.0205276133
 10
6156.5187556341
 20
4224.2822184087
  0
SPLINE
  5
213
330
1F
100
AcDbEntity
  8
0
  6
Continuous
 62
     7
370
    25
100
AcDbSpline
210
0.0
220
0.0
230
1.0
 70
     8
 71
     3
 72
    43
 73
    39
 74
     0
 42
0.000000001
 43
0.00000001
 40
0.0
 40
0.0
 40
0.0
 40
0.0
 40
0.1250000000000006
 40
0.1250000000000006
 40
0.1875000000000008
 40
0.1875000000000008
 40
0.2187500000000009
 40
0.2187500000000009
 40
0.2500000000000009
 40
0.2500000000000009
 40
0.3750000000000011
 40
0.3750000000000011
 40
0.5000000000000011
 40
0.5000000000000011
 40
0.562500000000001
 40
0.562500000000001
 40
0.5937500000000009
 40
0.5937500000000009
 40
0.6250000000000008
 40
0.6250000000000008
 40
0.6875000000000009
 40
0.6875000000000009
 40
0.750000000000001
 40
0.750000000000001
 40
0.8125000000000011
 40
0.8125000000000011
 40
0.8437500000000009
 40
0.8437500000000009
 40
0.8750000000000007
 40
0.8750000000000007
 40
0.9375000000000003
 40
0.9375000000000003
 40
0.9687500000000002
 40
0.9687500000000002
 40
0.9843750000000001
 40
0.9921875000000001
 40
0.9921875000000001
 40
1.0
 40
1.0
 40
1.0
 40
1.0
 10
6098.026331286881
 20
4204.784743725685
 30
0.0
 10
6093.217553860757
 20
4206.387669534392
 30
0.0
 10
6088.651181848535
 20
4208.064905712095
 30
0.0
 10
6082.152233981906
 20
4210.699246030799
 30
0.0
 10
6080.044554827797
 20
4211.597153077122
 30
0.0
 10
6076.971100288499
 20
4212.975048151549
 30
0.0
 10
6075.959714390692
 20
4213.440284970931
 30
0.0
 10
6073.975711104418
 20
4214.376974980051
 30
0.0
 10
6073.003201590045
 20
4214.84832562365
 30
0.0
 10
6068.236128209445
 20
4217.220323092019
 30
0.0
 10
6064.726730185755
 20
4219.166569424484
 30
0.0
 10
6058.28703627145
 20
4223.163914437354
 30
0.0
 10
6055.35686505246
 20
4225.214968811588
 30
0.0
 10
6051.395990214015
 20
4228.378851288702
 30
0.0
 10
6050.148310281837
 20
4229.448064432552
 30
0.0
 10
6048.387690490743
 20
4231.075243225707
 30
0.0
 10
6047.81916254988
 20
4231.621742493579
 30
0.0
 10
6046.724389604793
 20
4232.717808135873
 30
0.0
 10
6046.197474604696
 20
4233.267971621118
 30
0.0
 10
6044.67790982425
 20
4234.925096296162
 30
0.0
 10
6043.745999407437
 20
4236.03945553726
 30
0.0
 10
6042.052824200183
 20
4238.276458590291
 30
0.0
 10
6041.290316856331
 20
4239.400318724152
 30
0.0
 10
6039.932033097536
 20
4241.660030715062
 30
0.0
 10
6039.336257587977
 20
4242.795880878452
 30
0.0
 10
6038.568080691321
 20
4244.509696584391
 30
0.0
 10
6038.332973218666
 20
4245.082707051545
 30
0.0
 10
6037.906138279508
 20
4246.228406588322
 30
0.0
 10
6037.714182782544
 20
4246.80157378646
 30
0.0
 10
6037.202327706722
 20
4248.522272573251
 30
0.0
 10
6036.946376354252
 20
4249.671000136362
 30
0.0
 10
6036.690034234627
 20
4251.397472890188
 30
0.0
 10
6036.625866854793
 20
4251.973527600987
 30
0.0
 10
6036.56163585819
 20
4252.838582600874
 30
0.0
 10
6036.537526871991
 20
4253.271353385227
 30
0.0
 10
6036.525460052131
 20
4253.704513495853
 30
0.0
 10
6036.520096096586
 20
4253.993376174972
 30
0.0
 10
6036.518755336057
 20
4254.138477904064
 30
0.0
 10
6036.518755336057
 20
4254.282218408743
 30
0.0
  0
SPLINE
  5
214
330
1F
100
AcDbEntity
  8
0
  6
Continuous
 62
     7
370
    25
100
AcDbSpline
210
0.0
220
0.0
230
1.0
 70
     8
 71
     3
 72
    46
 73
    42
 74
     0
 42
0.000000001
 43
0.00000001
 40
0.0
 40
0.0
 40
0.0
 40
0.0
 40
0.0084423448825574
 40
0.0169045551963487
 40
0.0253866683697273
 40
0.033888721568188
 40
0.042410751696339
 40
0.0509527953998648
 40
0.0595148890674732
 40
0.0680970688328312
 40
0.0766993705764866
 40
0.0853218299277893
 40
0.0939644822667799
 40
0.1026273627260906
 40
0.1113105061928123
 40
0.1200139473103695
 40
0.128737720480362
 40
0.1374818598644182
 40
0.1699783463623431
 40
0.2028692312438164
 40
0.2361561184342458
 40
0.2698405552578846
 40
0.3331577292281939
 40
0.3983984031051956
 40
0.4597400176812514
 40
0.5234217358298628
 40
0.5826321203400028
 40
0.6447551016581784
 40
0.702258136011236
 40
0.7637245797654338
 40
0.8194583775965687
 40
0.8817180186401892
 40
0.8909682881520906
 40
0.9011916050545876
 40
0.9123879681453009
 40
0.9245573757734835
 40
0.9376998259109056
 40
0.9518153161983122
 40
0.9669038439768951
 40
0.9829654063102409
 40
1.0
 40
1.0
 40
1.0
 40
1.0
 10
6450.011179416534
 20
4204.784743602498
 30
0.0
 10
6450.333317172771
 20
4204.892528325314
 30
0.0
 10
6450.978350698041
 20
4205.108351395981
 30
0.0
 10
6451.939854819221
 20
4205.435439432577
 30
0.0
 10
6452.898240966681
 20
4205.765461171599
 30
0.0
 10
6453.852888395411
 20
4206.098631644226
 30
0.0
 10
6454.803824732462
 20
4206.434893029626
 30
0.0
 10
6455.750902707757
 20
4206.774260875395
 30
0.0
 10
6456.694021541341
 20
4207.116731000822
 30
0.0
 10
6457.633067428148
 20
4207.462304529909
 30
0.0
 10
6458.567929557778
 20
4207.810981160651
 30
0.0
 10
6459.498495816917
 20
4208.162760973026
 30
0.0
 10
6460.424653980548
 20
4208.517643949772
 30
0.0
 10
6461.346291332518
 20
4208.875630079305
 30
0.0
 10
6462.263295064563
 20
4209.236719425187
 30
0.0
 10
6463.17555113347
 20
4209.600911743627
 30
0.0
 10
6464.082948524571
 20
4209.968207948905
 30
0.0
 10
6465.801759073379
 20
4210.673694681283
 30
0.0
 10
6468.304353214954
 20
4211.735352214816
 30
0.0
 10
6471.531169029068
 20
4213.178591671473
 30
0.0
 10
6474.686859499346
 20
4214.668953247212
 30
0.0
 10
6478.654417339156
 20
4216.6510953644
 30
0.0
 10
6483.319146047505
 20
4219.185453515103
 30
0.0
 10
6488.330341909071
 20
4222.244130013087
 30
0.0
 10
6492.891724428882
 20
4225.391732438268
 30
0.0
 10
6496.856515189468
 20
4228.510384257076
 30
0.0
 10
6500.379901027719
 20
4231.704442213207
 30
0.0
 10
6503.340177714021
 20
4234.843238402051
 30
0.0
 10
6505.885001918839
 20
4238.065883811137
 30
0.0
 10
6507.900523460781
 20
4241.209685092179
 30
0.0
 10
6509.520902340714
 20
4244.467894966852
 30
0.0
 10
6510.346581442017
 20
4246.793135536921
 30
0.0
 10
6510.750150222324
 20
4248.290712032909
 30
0.0
 10
6510.888644833969
 20
4248.853150659442
 30
0.0
 10
6511.024717970288
 20
4249.469500846169
 30
0.0
 10
6511.15411848735
 20
4250.139780967738
 30
0.0
 10
6511.272164678501
 20
4250.863986365138
 30
0.0
 10
6511.374023032987
 20
4251.642118004732
 30
0.0
 10
6511.453562237756
 20
4252.474179993944
 30
0.0
 10
6511.50807986347
 20
4253.360154955525
 30
0.0
 10
6511.515127775348
 20
4253.968898213619
 30
0.0
 10
6511.518755336057
 20
4254.282218408743
 30
0.0
  0
LWPOLYLINE
  5
215
330
1F
100
AcDbEntity
  8
0
  6
Continuous
 62
     7
370
    25
100
AcDbPolyline
 90
       10
 70
   128
 43
0.0
 10
6391.518755038
 20
4224.2822184087
 10
6398.3038274243
 20
4222.0205276133
 10
6405.0671813681
 20
4219.7660713317
 10
6411.7872027352
 20
4217.5260691764
 10
6418.4423593476
 20
4215.3076811554
 10
6425.0113723471
 20
4213.118007672
 10
6431.4732310965
 20
4210.9640597226
 10
6437.807252784
 20
4208.8527216436
 10
6443.9931569293
 20
4206.7907511117
 10
6450.0111845925
 20
4204.7847418906
  0
LINE
  5
216
330
1F
100
AcDbEntity
  8
0
  6
Continuous
 62
     7
370
    25
100
AcDbLine
 10
6391.518755038
 20
4224.2822184087
 30
0.0
 11
6391.518755038
 21
4344.1350332321
 31
0.0
  0
ARC
  5
217
330
1F
100
AcDbEntity
  8
0
  6
Continuous
 62
     7
370
    25
100
AcDbCircle
 10
6186.5187553361
 20
4259.2822184087
 30
0.0
 40
150.0512834069467
100
AcDbArc
 50
116.029886233
 51
126.6986033888
  0
SPLINE
  5
218
330
1F
100
AcDbEntity
  8
0
  6
Continuous
 62
     7
370
    25
100
AcDbSpline
210
0.0
220
0.0
230
1.0
 70
     8
 71
     3
 72
    30
 73
    26
 74
     0
 42
0.000000001
 43
0.00000001
 40
0.0
 40
0.0
 40
0.0
 40
0.0
 40
0.0625000000000015
 40
0.0625000000000015
 40
0.125000000000003
 40
0.125000000000003
 40
0.1875000000000046
 40
0.1875000000000046
 40
0.2500000000000061
 40
0.2500000000000061
 40
0.3125000000000075
 40
0.3125000000000075
 40
0.3750000000000091
 40
0.3750000000000091
 40
0.5000000000000091
 40
0.5000000000000091
 40
0.6250000000000091
 40
0.6250000000000091
 40
0.7500000000000091
 40
0.7500000000000091
 40
0.8125000000000071
 40
0.8125000000000071
 40
0.8750000000000051
 40
0.8750000000000051
 40
1.0
 40
1.0
 40
1.0
 40
1.0
 10
6120.670263639262
 20
4394.113089478127
 30
0.0
 10
6120.845542055522
 20
4394.198691679212
 30
0.0
 10
6121.019568033136
 20
4394.286750661119
 30
0.0
 10
6121.352718326182
 20
4394.462850200995
 30
0.0
 10
6121.511596493493
 20
4394.550733213862
 30
0.0
 10
6121.813975027305
 20
4394.729961428862
 30
0.0
 10
6121.957741708091
 20
4394.821651919241
 30
0.0
 10
6122.221966277289
 20
4395.008664847198
 30
0.0
 10
6122.341350831765
 20
4395.103140335466
 30
0.0
 10
6122.556196826218
 20
4395.297369630983
 30
0.0
 10
6122.651958129296
 20
4395.397340671206
 30
0.0
 10
6122.822388375077
 20
4395.606961210291
 30
0.0
 10
6122.897398490587
 20
4395.717272294069
 30
0.0
 10
6123.090524813633
 20
4396.063236580815
 30
0.0
 10
6123.175789425619
 20
4396.310325685156
 30
0.0
 10
6123.2849427714
 20
4396.852658496042
 30
0.0
 10
6123.308193186218
 20
4397.151062616123
 30
0.0
 10
6123.311970551882
 20
4397.778389655678
 30
0.0
 10
6123.293393591813
 20
4398.109415631161
 30
0.0
 10
6123.249058937483
 20
4398.635897078908
 30
0.0
 10
6123.231434554243
 20
4398.816567090237
 30
0.0
 10
6123.193410226108
 20
4399.17913800618
 30
0.0
 10
6123.172921716447
 20
4399.362158272444
 30
0.0
 10
6123.109254898687
 20
4399.916594493731
 30
0.0
 10
6123.064159551315
 20
4400.293355383792
 30
0.0
 10
6123.018755801456
 20
4400.677935759812
 30
0.0
  0
ARC
  5
219
330
1F
100
AcDbEntity
  8
0
  6
Continuous
 62
     7
370
    25
100
AcDbCircle
 10
6186.5187553361
 20
4259.2822184087
 30
0.0
 40
155.0000000000001
100
AcDbArc
 50
90.0
 51
114.1845728423
  0
LINE
  5
21A
330
1F
100
AcDbEntity
  8
0
  6
Continuous
 62
     7
370
    25
100
AcDbLine
 10
6186.5187568262
 20
4414.2822160246
 30
0.0
 11
6186.5187568262
 21
4409.2822207929
 31
0.0
  0
ARC
  5
21B
330
1F
100
AcDbEntity
  8
0
  6
Continuous
 62
     7
370
    25
100
AcDbCircle
 10
6186.5187553361
 20
4259.2822184087
 30
0.0
 40
150.0
100
AcDbArc
 50
90.0
 51
180.0
  0
LINE
  5
21C
330
1F
100
AcDbEntity
  8
0
  6
Continuous
 62
     7
370
    25
100
AcDbLine
 10
6031.5187481835
 20
4259.2822185578
 30
0.0
 11
6036.5187583163
 21
4259.2822185578
 31
0.0
  0
ARC
  5
21D
330
1F
100
AcDbEntity
  8
0
  6
Continuous
 62
     7
370
    25
100
AcDbCircle
 10
6186.5187553361
 20
4259.2822184087
 30
0.0
 40
155.0
100
AcDbArc
 50
130.1360360972
 51
180.0
  0
SPLINE
  5
21E
330
1F
100
AcDbEntity
  8
0
  6
Continuous
 62
     7
370
    25
100
AcDbSpline
210
0.0
220
0.0
230
1.0
 70
     8
 71
     3
 72
    24
 73
    20
 74
     0
 42
0.000000001
 43
0.00000001
 40
0.0
 40
0.0
 40
0.0
 40
0.0
 40
0.1250000000000006
 40
0.1250000000000006
 40
0.2500000000000012
 40
0.2500000000000012
 40
0.3750000000000018
 40
0.3750000000000018
 40
0.5000000000000024
 40
0.5000000000000024
 40
0.6250000000000031
 40
0.6250000000000031
 40
0.7500000000000037
 40
0.7500000000000037
 40
0.8125000000000032
 40
0.8125000000000032
 40
0.8750000000000028
 40
0.8750000000000028
 40
1.0
 40
1.0
 40
1.0
 40
1.0
 10
6086.605042563436
 20
4377.782218408752
 30
0.0
 10
6087.098725350619
 20
4377.693711485354
 30
0.0
 10
6087.586130413661
 20
4377.605480491967
 30
0.0
 10
6088.549851658311
 20
4377.436182104658
 30
0.0
 10
6089.029272413719
 20
4377.354699711314
 30
0.0
 10
6089.956719291858
 20
4377.222397146787
 30
0.0
 10
6090.408660193583
 20
4377.171221710889
 30
0.0
 10
6091.282189024875
 20
4377.12699393923
 30
0.0
 10
6091.702330575464
 20
4377.134146175073
 30
0.0
 10
6092.522516817565
 20
4377.230869130219
 30
0.0
 10
6092.914364164367
 20
4377.319676843473
 30
0.0
 10
6093.687328444448
 20
4377.584420916341
 30
0.0
 10
6094.068470598758
 20
4377.760292000754
 30
0.0
 10
6094.655518359672
 20
4378.086666455218
 30
0.0
 10
6094.852158251376
 20
4378.204957686864
 30
0.0
 10
6095.244442246561
 20
4378.453902691472
 30
0.0
 10
6095.44102713209
 20
4378.585053328581
 30
0.0
 10
6096.036095970744
 20
4378.994653905005
 30
0.0
 10
6096.443211041525
 20
4379.29070948613
 30
0.0
 10
6096.847267612952
 20
4379.591868651759
 30
0.0
  0
SPLINE
  5
21F
330
1F
100
AcDbEntity
  8
0
  6
Continuous
 62
     7
370
    25
100
AcDbSpline
210
0.0
220
0.0
230
1.0
 70
     8
 71
     3
 72
    22
 73
    18
 74
     0
 42
0.000000001
 43
0.00000001
 40
0.0
 40
0.0
 40
0.0
 40
0.0
 40
0.125
 40
0.125
 40
0.25
 40
0.25
 40
0.375
 40
0.375
 40
0.5
 40
0.5
 40
0.625
 40
0.625
 40
0.75
 40
0.75
 40
0.875
 40
0.875
 40
1.0
 40
1.0
 40
1.0
 40
1.0
 10
6095.960053383636
 20
4380.782218408743
 30
0.0
 10
6095.579700584542
 20
4380.640472500224
 30
0.0
 10
6095.200603348294
 20
4380.50096447787
 30
0.0
 10
6094.443225422467
 20
4380.230777686705
 30
0.0
 10
6094.064944613409
 20
4380.100213385714
 30
0.0
 10
6093.304314200019
 20
4379.860669731233
 30
0.0
 10
6092.925214099092
 20
4379.753209052164
 30
0.0
 10
6092.16301163966
 20
4379.574096639047
 30
0.0
 10
6091.779683597897
 20
4379.502628253089
 30
0.0
 10
6091.00297106654
 20
4379.395373452931
 30
0.0
 10
6090.611987440218
 20
4379.359648400527
 30
0.0
 10
6089.824305763147
 20
4379.311996370831
 30
0.0
 10
6089.427339079823
 20
4379.299750344572
 30
0.0
 10
6088.626794699875
 20
4379.285648088862
 30
0.0
 10
6088.223061466823
 20
4379.283719348768
 30
0.0
 10
6087.415351345404
 20
4379.282001502747
 30
0.0
 10
6087.010623638746
 20
4379.282218408742
 30
0.0
 10
6086.605042563443
 20
4379.282218408742
 30
0.0
  0
LWPOLYLINE
  5
220
330
1F
100
AcDbEntity
  8
0
  6
Continuous
 62
     7
370
    25
100
AcDbPolyline
 90
        9
 70
   128
 43
0.0
 10
6095.9600565627
 20
4380.7822151901
 10
6096.1191562607
 20
4380.568756056
 10
6096.2732044652
 20
4380.3620769502
 10
6096.4172986939
 20
4380.1687343837
 10
6096.5468940928
 20
4379.9948750855
 10
6096.6578481391
 20
4379.8460124852
 10
6096.7466292575
 20
4379.726885152
 10
6096.8104509308
 20
4379.6412630798
 10
6096.8472717002
 20
4379.5918657304
  0
LINE
  5
221
330
1F
100
AcDbEntity
  8
0
  6
Continuous
 62
     7
370
    25
100
AcDbLine
 10
6086.6050479605
 20
4379.2822196008
 30
0.0
 11
6086.6050479605
 21
4377.782216561
 31
0.0
  0
ARC
  5
222
330
1F
100
AcDbEntity
  8
0
  6
Continuous
 62
     7
370
    25
100
AcDbCircle
 10
6361.5187553361
 20
4259.2822184087
 30
0.0
 40
154.9999999999997
100
AcDbArc
 50
0.0
 51
49.8639639028
  0
LINE
  5
223
330
1F
100
AcDbEntity
  8
0
  6
Continuous
 62
     7
370
    25
100
AcDbLine
 10
6511.5187523558
 20
4259.2822185578
 30
0.0
 11
6516.5187624886
 21
4259.2822185578
 31
0.0
  0
ARC
  5
224
330
1F
100
AcDbEntity
  8
0
  6
Continuous
 62
     7
370
    25
100
AcDbCircle
 10
6361.5187553361
 20
4259.2822184087
 30
0.0
 40
150.0
100
AcDbArc
 50
0.0
 51
90.0
  0
LINE
  5
225
330
1F
100
AcDbEntity
  8
0
  6
Continuous
 62
     7
370
    25
100
AcDbLine
 10
6361.5187538459
 20
4414.2822160246
 30
0.0
 11
6361.5187538459
 21
4409.2822207929
 31
0.0
  0
ARC
  5
226
330
1F
100
AcDbEntity
  8
0
  6
Continuous
 62
     7
370
    25
100
AcDbCircle
 10
6361.5187553361
 20
4259.2822184087
 30
0.0
 40
155.0
100
AcDbArc
 50
65.8154275977
 51
90.0
  0
SPLINE
  5
227
330
1F
100
AcDbEntity
  8
0
  6
Continuous
 62
     7
370
    25
100
AcDbSpline
210
0.0
220
0.0
230
1.0
 70
     8
 71
     3
 72
    32
 73
    28
 74
     0
 42
0.000000001
 43
0.00000001
 40
0.0
 40
0.0
 40
0.0
 40
0.0
 40
0.1249999999999998
 40
0.1249999999999998
 40
0.2499999999999997
 40
0.2499999999999997
 40
0.3124999999999993
 40
0.3124999999999993
 40
0.3749999999999988
 40
0.3749999999999988
 40
0.499999999999998
 40
0.499999999999998
 40
0.5624999999999982
 40
0.5624999999999982
 40
0.6249999999999986
 40
0.6249999999999986
 40
0.6874999999999988
 40
0.6874999999999988
 40
0.749999999999999
 40
0.749999999999999
 40
0.8124999999999992
 40
0.8124999999999992
 40
0.8749999999999994
 40
0.8749999999999994
 40
0.9374999999999998
 40
0.9374999999999998
 40
1.0
 40
1.0
 40
1.0
 40
1.0
 10
6425.018754870657
 20
4400.677935759814
 30
0.0
 10
6424.973419268576
 20
4400.293932611411
 30
0.0
 10
6424.927989784091
 20
4399.914543276203
 30
0.0
 10
6424.841906537012
 20
4399.164360181412
 30
0.0
 10
6424.802318757601
 20
4398.801807351349
 30
0.0
 10
6424.758618979079
 20
4398.280993957902
 30
0.0
 10
6424.746682753588
 20
4398.110876780794
 30
0.0
 10
6424.730520456812
 20
4397.777312601204
 30
0.0
 10
6424.726347589468
 20
4397.613378036636
 30
0.0
 10
6424.729761333813
 20
4397.141762056031
 30
0.0
 10
6424.752709767382
 20
4396.850685290673
 30
0.0
 10
6424.835236126293
 20
4396.44256239183
 30
0.0
 10
6424.871125564821
 20
4396.310687884704
 30
0.0
 10
6424.960713217291
 20
4396.060602309259
 30
0.0
 10
6425.014435588506
 20
4395.941789200567
 30
0.0
 10
6425.142238289332
 20
4395.714108066479
 30
0.0
 10
6425.216303194567
 20
4395.605253731798
 30
0.0
 10
6425.388049567351
 20
4395.394530018401
 30
0.0
 10
6425.485986010567
 20
4395.292726274713
 30
0.0
 10
6425.701829460159
 20
4395.09845494388
 30
0.0
 10
6425.82032654774
 20
4395.005156553721
 30
0.0
 10
6426.080060861382
 20
4394.821571340109
 30
0.0
 10
6426.222850779686
 20
4394.730368655034
 30
0.0
 10
6426.526508151745
 20
4394.550379862306
 30
0.0
 10
6426.685648859429
 20
4394.462388659139
 30
0.0
 10
6427.018185859249
 20
4394.286630925085
 30
0.0
 10
6427.19212023099
 20
4394.198617634006
 30
0.0
 10
6427.367247032851
 20
4394.113089478127
 30
0.0
  0
ARC
  5
228
330
1F
100
AcDbEntity
  8
0
  6
Continuous
 62
     7
370
    25
100
AcDbCircle
 10
6361.5187553361
 20
4259.2822184087
 30
0.0
 40
150.0512834069463
100
AcDbArc
 50
53.3013966112
 51
63.970113767
  0
SPLINE
  5
229
330
1F
100
AcDbEntity
  8
0
  6
Continuous
 62
     7
370
    25
100
AcDbSpline
210
0.0
220
0.0
230
1.0
 70
     8
 71
     3
 72
    28
 73
    24
 74
     0
 42
0.000000001
 43
0.00000001
 40
0.0
 40
0.0
 40
0.0
 40
0.0
 40
0.1250000000000033
 40
0.1250000000000033
 40
0.1875000000000031
 40
0.1875000000000031
 40
0.2500000000000029
 40
0.2500000000000029
 40
0.3125000000000027
 40
0.3125000000000027
 40
0.3750000000000026
 40
0.3750000000000026
 40
0.5000000000000012
 40
0.5000000000000012
 40
0.6249999999999999
 40
0.6249999999999999
 40
0.6875000000000022
 40
0.6875000000000022
 40
0.7500000000000046
 40
0.7500000000000046
 40
0.8750000000000022
 40
0.8750000000000022
 40
1.0
 40
1.0
 40
1.0
 40
1.0
 10
6451.190243059161
 20
4379.591868651759
 30
0.0
 10
6451.593883454447
 20
4379.291019678486
 30
0.0
 10
6451.992297316293
 20
4379.001158677384
 30
0.0
 10
6452.589050110574
 20
4378.590058837663
 30
0.0
 10
6452.788945786369
 20
4378.45658575722
 30
0.0
 10
6453.183452871051
 20
4378.206097339106
 30
0.0
 10
6453.378695428132
 20
4378.088620744677
 30
0.0
 10
6453.768695930593
 20
4377.871556214228
 30
0.0
 10
6453.964201378835
 20
4377.771670150217
 30
0.0
 10
6454.35423054865
 20
4377.593984590283
 30
0.0
 10
6454.54871351886
 20
4377.516116307167
 30
0.0
 10
6455.136488842536
 20
4377.315739467043
 30
0.0
 10
6455.536752196939
 20
4377.227102887658
 30
0.0
 10
6456.34968386838
 20
4377.133690912122
 30
0.0
 10
6456.764883284346
 20
4377.127265856908
 30
0.0
 10
6457.41319126249
 20
4377.1604105893
 30
0.0
 10
6457.633492177006
 20
4377.178575228331
 30
0.0
 10
6458.08407307541
 20
4377.226201515165
 30
0.0
 10
6458.315074169169
 20
4377.255794694957
 30
0.0
 10
6459.010738518954
 20
4377.355103682022
 30
0.0
 10
6459.482217776699
 20
4377.435254064945
 30
0.0
 10
6460.444265950092
 20
4377.604203240058
 30
0.0
 10
6460.937793536354
 20
4377.693533679173
 30
0.0
 10
6461.432468108677
 20
4377.782218408752
 30
0.0
  0
SPLINE
  5
22A
330
1F
100
AcDbEntity
  8
0
  6
Continuous
 62
     7
370
    25
100
AcDbSpline
210
0.0
220
0.0
230
1.0
 70
     8
 71
     3
 72
    20
 73
    16
 74
     0
 42
0.000000001
 43
0.00000001
 40
0.0
 40
0.0
 40
0.0
 40
0.0
 40
0.2500000000000063
 40
0.2500000000000063
 40
0.3750000000000053
 40
0.3750000000000053
 40
0.5000000000000042
 40
0.5000000000000042
 40
0.6250000000000031
 40
0.6250000000000031
 40
0.7500000000000021
 40
0.7500000000000021
 40
0.875000000000001
 40
0.875000000000001
 40
1.0
 40
1.0
 40
1.0
 40
1.0
 10
6461.43246810867
 20
4379.282218408743
 30
0.0
 10
6460.621377315893
 20
4379.282218408743
 30
0.0
 10
6459.815160158376
 20
4379.278590947009
 30
0.0
 10
6458.613703405881
 20
4379.299654625359
 30
0.0
 10
6458.214678575578
 20
4379.311930063887
 30
0.0
 10
6457.426318257522
 20
4379.359577525054
 30
0.0
 10
6457.036135440952
 20
4379.395230798599
 30
0.0
 10
6456.261268779032
 20
4379.502075786418
 30
0.0
 10
6455.875895624727
 20
4379.573805222692
 30
0.0
 10
6455.113228305792
 20
4379.752953440003
 30
0.0
 10
6454.734948473025
 20
4379.860187117229
 30
0.0
 10
6453.977556187917
 20
4380.098573328112
 30
0.0
 10
6453.597334871808
 20
4380.22970513952
 30
0.0
 10
6452.837545094344
 20
4380.500721660022
 30
0.0
 10
6452.457833173786
 20
4380.640463896695
 30
0.0
 10
6452.077457288477
 20
4380.782218408743
 30
0.0
  0
LINE
  5
22B
330
1F
100
AcDbEntity
  8
0
  6
Continuous
 62
     7
370
    25
100
AcDbLine
 10
6461.4324627116
 20
4379.2822196008
 30
0.0
 11
6461.4324627116
 21
4377.782216561
 31
0.0
  0
LWPOLYLINE
  5
22C
330
1F
100
AcDbEntity
  8
0
  6
Continuous
 62
     7
370
    25
100
AcDbPolyline
 90
        9
 70
   128
 43
0.0
 10
6452.0774541094
 20
4380.7822151901
 10
6451.9183544114
 20
4380.568756056
 10
6451.764306207
 20
4380.3620769502
 10
6451.6202119782
 20
4380.1687343837
 10
6451.4906165793
 20
4379.9948750855
 10
6451.3796625331
 20
4379.8460124852
 10
6451.2908814147
 20
4379.726885152
 10
6451.2270597413
 20
4379.6412630798
 10
6451.190238972
 20
4379.5918657304
  0
SPLINE
  5
22D
330
1F
100
AcDbEntity
  8
0
  6
Continuous
 62
     7
370
    25
100
AcDbSpline
210
0.0
220
0.0
230
1.0
 70
     8
 71
     3
 72
    20
 73
    16
 74
     0
 42
0.000000001
 43
0.00000001
 40
0.0
 40
0.0
 40
0.0
 40
0.0
 40
0.2500000000000051
 40
0.2500000000000051
 40
0.3750000000000041
 40
0.3750000000000041
 40
0.5000000000000032
 40
0.5000000000000032
 40
0.6250000000000024
 40
0.6250000000000024
 40
0.7500000000000016
 40
0.7500000000000016
 40
0.8750000000000008
 40
0.8750000000000008
 40
1.0
 40
1.0
 40
1.0
 40
1.0
 10
6121.518755336057
 20
4400.67793679612
 30
0.0
 10
6121.518755336057
 20
4400.182316367057
 30
0.0
 10
6121.520898224087
 20
4399.690609048671
 30
0.0
 10
6121.50880211017
 20
4398.959708973022
 30
0.0
 10
6121.501847964263
 20
4398.719253762026
 30
0.0
 10
6121.473066678894
 20
4398.246480503603
 30
0.0
 10
6121.451104910332
 20
4398.012824263878
 30
0.0
 10
6121.378073121989
 20
4397.560232649857
 30
0.0
 10
6121.327116179291
 20
4397.342315950294
 30
0.0
 10
6121.178967214653
 20
4396.92200638235
 30
0.0
 10
6121.08103481077
 20
4396.720940853703
 30
0.0
 10
6120.837757921794
 20
4396.339309018868
 30
0.0
 10
6120.690461916347
 20
4396.155105797989
 30
0.0
 10
6120.37064680174
 20
4395.797733904908
 30
0.0
 10
6120.196904498936
 20
4395.621121351244
 30
0.0
 10
6120.018755336057
 20
4395.447112927511
 30
0.0
  0
LWPOLYLINE
  5
22E
330
1F
100
AcDbEntity
  8
0
  6
Continuous
 62
     7
370
    25
100
AcDbPolyline
 90
        9
 70
   128
 43
0.0
 10
6121.5187517598
 20
4400.6779401423
 10
6121.5475706055
 20
4400.6779401423
 10
6121.632939358
 20
4400.6779401423
 10
6121.7715499594
 20
4400.6779401423
 10
6121.9580975964
 20
4400.6779401423
 10
6122.1853999093
 20
4400.6779401423
 10
6122.4447248175
 20
4400.6779401423
 10
6122.7261183455
 20
4400.6779326917
 10
6123.018747349
 20
4400.6779401423
  0
LWPOLYLINE
  5
22F
330
1F
100
AcDbEntity
  8
0
  6
Continuous
 62
     7
370
    25
100
AcDbPolyline
 90
        9
 70
   128
 43
0.0
 10
6120.0187561705
 20
4395.4471110226
 10
6120.1355812743
 20
4395.2078877808
 10
6120.2487108901
 20
4394.9762641312
 10
6120.3545240357
 20
4394.7595863463
 10
6120.4496828511
 20
4394.5647387625
 10
6120.5311624005
 20
4394.3979128124
 10
6120.5963698819
 20
4394.2643984081
 10
6120.6432340338
 20
4394.1684423806
 10
6120.6702647402
 20
4394.1130920173
  0
SPLINE
  5
230
330
1F
100
AcDbEntity
  8
0
  6
Continuous
 62
     7
370
    25
100
AcDbSpline
210
0.0
220
0.0
230
1.0
 70
     8
 71
     3
 72
    18
 73
    14
 74
     0
 42
0.000000001
 43
0.00000001
 40
0.0
 40
0.0
 40
0.0
 40
0.0
 40
0.1249999999999979
 40
0.1249999999999979
 40
0.2499999999999958
 40
0.2499999999999958
 40
0.3749999999999937
 40
0.3749999999999937
 40
0.4999999999999916
 40
0.4999999999999916
 40
0.7499999999999958
 40
0.7499999999999958
 40
1.0
 40
1.0
 40
1.0
 40
1.0
 10
6428.018755336057
 20
4395.447112927511
 30
0.0
 10
6427.840712909312
 20
4395.621017095988
 30
0.0
 10
6427.669100781051
 20
4395.795334447398
 30
0.0
 10
6427.347341075013
 20
4396.154679795636
 30
0.0
 10
6427.201603605145
 20
4396.336723248957
 30
0.0
 10
6426.957179335184
 20
4396.719522918191
 30
0.0
 10
6426.859350939127
 20
4396.920276994611
 30
0.0
 10
6426.71128696189
 20
4397.339228868321
 30
0.0
 10
6426.659504214116
 20
4397.560011705845
 30
0.0
 10
6426.550077855498
 20
4398.237571550049
 30
0.0
 10
6426.532767216999
 20
4398.716287866177
 30
0.0
 10
6426.516643345072
 20
4399.686928033568
 30
0.0
 10
6426.518755336057
 20
4400.182381086902
 30
0.0
 10
6426.518755336057
 20
4400.677936796122
 30
0.0
  0
LWPOLYLINE
  5
231
330
1F
100
AcDbEntity
  8
0
  6
Continuous
 62
     7
370
    25
100
AcDbPolyline
 90
        9
 70
   128
 43
0.0
 10
6428.0187545016
 20
4395.4471110226
 10
6427.9019293978
 20
4395.2078877808
 10
6427.788799782
 20
4394.9762641312
 10
6427.6829866364
 20
4394.7595863463
 10
6427.587827821
 20
4394.5647387625
 10
6427.5063482716
 20
4394.3979128124
 10
6427.4411407902
 20
4394.2643984081
 10
6427.3942766383
 20
4394.1684423806
 10
6427.3672459319
 20
4394.1130920173
  0
LINE
  5
232
330
1F
100
AcDbEntity
  8
0
  6
Continuous
 62
     7
370
    25
100
AcDbLine
 10
6426.5187589123
 20
4400.6779401423
 30
0.0
 11
6425.0187484219
 21
4400.6779401423
 31
0.0
  0
LINE
  5
233
330
1F
100
AcDbEntity
  8
0
  6
Continuous
 62
     7
370
    25
100
AcDbLine
 10
6566.5187446072
 20
4104.2822136404
 30
0.0
 11
6566.5187446072
 21
4504.2822196008
 31
0.0
  0
LWPOLYLINE
  5
234
330
1F
100
AcDbEntity
  8
0
  6
Continuous
 62
     7
370
    25
100
AcDbPolyline
 90
        3
 70
   128
 43
0.0
 10
6570.5187527135
 20
4508.2822128059
 10
6570.3489688828
 20
4508.1124438764
 10
6570.341965337
 20
4508.1054403307
  0
LINE
  5
235
330
1F
100
AcDbEntity
  8
0
  6
Continuous
 62
     7
370
    25
100
AcDbLine
 10
6567.0187679722
 20
4504.7822131635
 30
0.0
 11
6566.5187446072
 21
4504.2822196008
 31
0.0
  0
LINE
  5
236
330
1F
100
AcDbEntity
  8
0
  6
Continuous
 62
     7
370
    25
100
AcDbLine
 10
6571.5187696412
 20
4506.7822172167
 30
0.0
 11
6571.5187696412
 21
4104.2822136404
 31
0.0
  0
LINE
  5
237
330
1F
100
AcDbEntity
  8
0
  6
Continuous
 62
     7
370
    25
100
AcDbLine
 10
6566.5187446072
 20
4104.2822136404
 30
0.0
 11
6571.5187696412
 21
4104.2822136404
 31
0.0
  0
LINE
  5
238
330
1F
100
AcDbEntity
  8
0
  6
Continuous
 62
     7
370
    25
100
AcDbLine
 10
5976.5187410309
 20
4104.2822136404
 30
0.0
 11
5976.5187410309
 21
4506.7822172167
 31
0.0
  0
LWPOLYLINE
  5
239
330
1F
100
AcDbEntity
  8
0
  6
Continuous
 62
     7
370
    25
100
AcDbPolyline
 90
        3
 70
   128
 43
0.0
 10
5977.5187579587
 20
4508.2822128059
 10
5977.6885417893
 20
4508.1124438764
 10
5977.6955453351
 20
4508.1054403307
  0
LINE
  5
23A
330
1F
100
AcDbEntity
  8
0
  6
Continuous
 62
     7
370
    25
100
AcDbLine
 10
5981.0187426999
 20
4504.7822131635
 30
0.0
 11
5981.5187660649
 21
4504.2822196008
 31
0.0
  0
LINE
  5
23B
330
1F
100
AcDbEntity
  8
0
  6
Continuous
 62
     7
370
    25
100
AcDbLine
 10
5981.5187660649
 20
4504.2822196008
 30
0.0
 11
5981.5187660649
 21
4104.2822136404
 31
0.0
  0
LINE
  5
23C
330
1F
100
AcDbEntity
  8
0
  6
Continuous
 62
     7
370
    25
100
AcDbLine
 10
5976.5187410309
 20
4104.2822136404
 30
0.0
 11
5981.5187660649
 21
4104.2822136404
 31
0.0
  0
LINE
  5
23D
330
1F
100
AcDbEntity
  8
0
  6
Continuous
 62
     7
370
    25
100
AcDbLine
 10
5977.5187579587
 20
4509.2822148325
 30
0.0
 11
5977.6955453351
 21
4509.2822148325
 31
0.0
  0
LINE
  5
23E
330
1F
100
AcDbEntity
  8
0
  6
Continuous
 62
     7
370
    25
100
AcDbLine
 10
6570.341965337
 20
4509.2822148325
 30
0.0
 11
6570.5187527135
 21
4509.2822148325
 31
0.0
  0
LINE
  5
23F
330
1F
100
AcDbEntity
  8
0
  6
Continuous
 62
     7
370
    25
100
AcDbLine
 10
6566.5187446072
 20
4504.2822196008
 30
0.0
 11
5981.5187660649
 21
4504.2822196008
 31
0.0
  0
LINE
  5
240
330
1F
100
AcDbEntity
  8
0
  6
Continuous
 62
     7
370
    25
100
AcDbLine
 10
6528.0187634423
 20
4477.7822180511
 30
0.0
 11
6528.0187634423
 21
4380.7822151901
 31
0.0
  0
ARC
  5
241
330
1F
100
AcDbEntity
  8
0
  6
Continuous
 62
     7
370
    25
100
AcDbCircle
 10
6525.0187553361
 20
4477.7822184087
 30
0.0
 40
3.000000000000909
100
AcDbArc
 50
0.0
 51
90.0
  0
LINE
  5
242
330
1F
100
AcDbEntity
  8
0
  6
Continuous
 62
     7
370
    25
100
AcDbLine
 10
6428.0187545016
 20
4480.7822241308
 30
0.0
 11
6525.0187424615
 21
4480.7822241308
 31
0.0
  0
ARC
  5
243
330
1F
100
AcDbEntity
  8
0
  6
Continuous
 62
     7
370
    25
100
AcDbCircle
 10
6428.0187553361
 20
4477.7822184087
 30
0.0
 40
3.000000000000909
100
AcDbArc
 50
90.0
 51
180.0
  0
LINE
  5
244
330
1F
100
AcDbEntity
  8
0
  6
Continuous
 62
     7
370
    25
100
AcDbLine
 10
6425.0187484219
 20
4400.6779401423
 30
0.0
 11
6425.0187484219
 21
4477.7822180511
 31
0.0
  0
LINE
  5
245
330
1F
100
AcDbEntity
  8
0
  6
Continuous
 62
     7
370
    25
100
AcDbLine
 10
6186.5187568262
 20
4414.2822160246
 30
0.0
 11
6361.5187538459
 21
4414.2822160246
 31
0.0
  0
LINE
  5
246
330
1F
100
AcDbEntity
  8
0
  6
Continuous
 62
     7
370
    25
100
AcDbLine
 10
6123.0187622502
 20
4477.7822180511
 30
0.0
 11
6123.018747349
 21
4400.6779401423
 31
0.0
  0
ARC
  5
247
330
1F
100
AcDbEntity
  8
0
  6
Continuous
 62
     7
370
    25
100
AcDbCircle
 10
6120.0187553361
 20
4477.7822184087
 30
0.0
 40
3.000000000000909
100
AcDbArc
 50
0.0
 51
90.0
  0
LINE
  5
248
330
1F
100
AcDbEntity
  8
0
  6
Continuous
 62
     7
370
    25
100
AcDbLine
 10
6023.0187682107
 20
4480.7822241308
 30
0.0
 11
6120.0187561705
 21
4480.7822241308
 31
0.0
  0
ARC
  5
249
330
1F
100
AcDbEntity
  8
0
  6
Continuous
 62
     7
370
    25
100
AcDbCircle
 10
6023.0187553361
 20
4477.7822184087
 30
0.0
 40
3.000000000000909
100
AcDbArc
 50
90.0
 51
180.0
  0
LINE
  5
24A
330
1F
100
AcDbEntity
  8
0
  6
Continuous
 62
     7
370
    25
100
AcDbLine
 10
6020.0187472298
 20
4380.7822151901
 30
0.0
 11
6020.0187472298
 21
4477.7822180511
 31
0.0
  0
ARC
  5
24B
330
1F
100
AcDbEntity
  8
0
  6
Continuous
 62
     7
370
    25
100
AcDbCircle
 10
6023.0187553361
 20
4380.7822184087
 30
0.0
 40
3.0
100
AcDbArc
 50
180.0
 51
270.0
  0
LINE
  5
24C
330
1F
100
AcDbEntity
  8
0
  6
Continuous
 62
     7
370
    25
100
AcDbLine
 10
6086.6050479605
 20
4377.782216561
 30
0.0
 11
6023.0187682107
 21
4377.782216561
 31
0.0
  0
LINE
  5
24D
330
1F
100
AcDbEntity
  8
0
  6
Continuous
 62
     7
370
    25
100
AcDbLine
 10
6031.5187481835
 20
4254.2822196008
 30
0.0
 11
6031.5187481835
 21
4259.2822185578
 31
0.0
  0
ARC
  5
24E
330
1F
100
AcDbEntity
  8
0
  6
Continuous
 62
     7
370
    25
100
AcDbCircle
 10
6186.5187553361
 20
4254.2822184087
 30
0.0
 40
155.0000000000009
100
AcDbArc
 50
180.0
 51
270.0
  0
LINE
  5
24F
330
1F
100
AcDbEntity
  8
0
  6
Continuous
 62
     7
370
    25
100
AcDbLine
 10
6361.5187538459
 20
4099.2822184087
 30
0.0
 11
6186.5187568262
 21
4099.2822184087
 31
0.0
  0
ARC
  5
250
330
1F
100
AcDbEntity
  8
0
  6
Continuous
 62
     7
370
    25
100
AcDbCircle
 10
6361.5187553361
 20
4254.2822184087
 30
0.0
 40
154.9999999999991
100
AcDbArc
 50
270.0
 51
0.0
  0
LINE
  5
251
330
1F
100
AcDbEntity
  8
0
  6
Continuous
 62
     7
370
    25
100
AcDbLine
 10
6516.5187624886
 20
4259.2822185578
 30
0.0
 11
6516.5187624886
 21
4254.2822196008
 31
0.0
  0
LINE
  5
252
330
1F
100
AcDbEntity
  8
0
  6
Continuous
 62
     7
370
    25
100
AcDbLine
 10
6525.0187424615
 20
4377.782216561
 30
0.0
 11
6461.4324627116
 21
4377.782216561
 31
0.0
  0
ARC
  5
253
330
1F
100
AcDbEntity
  8
0
  6
Continuous
 62
     7
370
    25
100
AcDbCircle
 10
6525.0187553361
 20
4380.7822184087
 30
0.0
 40
3.0
100
AcDbArc
 50
270.0
 51
0.0
  0
LINE
  5
254
330
1F
100
AcDbEntity
  8
0
  6
Continuous
 62
     7
370
    25
100
AcDbLine
 10
6016.5187624886
 20
4069.2822172167
 30
0.0
 11
6531.5187481835
 21
4069.2822172167
 31
0.0
  0
ARC
  5
255
330
1F
100
AcDbEntity
  8
0
  6
Continuous
 62
     7
370
    25
100
AcDbCircle
 10
6016.5187553361
 20
4104.2822184087
 30
0.0
 40
34.99999999999955
100
AcDbArc
 50
180.0
 51
270.0
  0
ARC
  5
256
330
1F
100
AcDbEntity
  8
0
  6
Continuous
 62
     7
370
    25
100
AcDbCircle
 10
6531.5187553361
 20
4104.2822184087
 30
0.0
 40
35.00000000000091
100
AcDbArc
 50
270.0
 51
0.0
  0
CIRCLE
  5
257
330
1F
100
AcDbEntity
  8
0
  6
Continuous
 62
     7
370
    25
100
AcDbCircle
 10
6274.0187553361
 20
4449.7822184087
 30
0.0
 40
17.5
  0
LINE
  5
258
330
1F
100
AcDbEntity
  8
0
  6
Continuous
 62
     7
370
    25
100
AcDbLine
 10
6023.0187682107
 20
4480.7822241308
 30
0.0
 11
6023.0187682107
 21
4479.2822136404
 31
0.0
  0
ARC
  5
259
330
1F
100
AcDbEntity
  8
0
  6
Continuous
 62
     7
370
    25
100
AcDbCircle
 10
6023.0187553361
 20
4477.7822184087
 30
0.0
 40
1.5
100
AcDbArc
 50
90.0
 51
180.0
  0
LINE
  5
25A
330
1F
100
AcDbEntity
  8
0
  6
Continuous
 62
     7
370
    25
100
AcDbLine
 10
6020.0187472298
 20
4477.7822180511
 30
0.0
 11
6021.5187577202
 21
4477.7822180511
 31
0.0
  0
LINE
  5
25B
330
1F
100
AcDbEntity
  8
0
  6
Continuous
 62
     7
370
    25
100
AcDbLine
 10
6123.0187622502
 20
4477.7822180511
 30
0.0
 11
6121.5187517598
 21
4477.7822180511
 31
0.0
  0
ARC
  5
25C
330
1F
100
AcDbEntity
  8
0
  6
Continuous
 62
     7
370
    25
100
AcDbCircle
 10
6120.0187553361
 20
4477.7822184087
 30
0.0
 40
1.5
100
AcDbArc
 50
0.0
 51
90.0
  0
LINE
  5
25D
330
1F
100
AcDbEntity
  8
0
  6
Continuous
 62
     7
370
    25
100
AcDbLine
 10
6120.0187561705
 20
4480.7822241308
 30
0.0
 11
6120.0187561705
 21
4479.2822136404
 31
0.0
  0
LINE
  5
25E
330
1F
100
AcDbEntity
  8
0
  6
Continuous
 62
     7
370
    25
100
AcDbLine
 10
6023.0187682107
 20
4479.2822136404
 30
0.0
 11
6120.0187561705
 21
4479.2822136404
 31
0.0
  0
LINE
  5
25F
330
1F
100
AcDbEntity
  8
0
  6
Continuous
 62
     7
370
    25
100
AcDbLine
 10
6528.0187634423
 20
4477.7822180511
 30
0.0
 11
6526.5187529519
 21
4477.7822180511
 31
0.0
  0
ARC
  5
260
330
1F
100
AcDbEntity
  8
0
  6
Continuous
 62
     7
370
    25
100
AcDbCircle
 10
6525.0187553361
 20
4477.7822184087
 30
0.0
 40
1.5
100
AcDbArc
 50
0.0
 51
90.0
  0
LINE
  5
261
330
1F
100
AcDbEntity
  8
0
  6
Continuous
 62
     7
370
    25
100
AcDbLine
 10
6525.0187424615
 20
4480.7822241308
 30
0.0
 11
6525.0187424615
 21
4479.2822136404
 31
0.0
  0
LINE
  5
262
330
1F
100
AcDbEntity
  8
0
  6
Continuous
 62
     7
370
    25
100
AcDbLine
 10
6428.0187545016
 20
4479.2822136404
 30
0.0
 11
6525.0187424615
 21
4479.2822136404
 31
0.0
  0
LINE
  5
263
330
1F
100
AcDbEntity
  8
0
  6
Continuous
 62
     7
370
    25
100
AcDbLine
 10
6428.0187545016
 20
4480.7822241308
 30
0.0
 11
6428.0187545016
 21
4479.2822136404
 31
0.0
  0
ARC
  5
264
330
1F
100
AcDbEntity
  8
0
  6
Continuous
 62
     7
370
    25
100
AcDbCircle
 10
6428.0187553361
 20
4477.7822184087
 30
0.0
 40
1.5
100
AcDbArc
 50
90.0
 51
180.0
  0
LINE
  5
265
330
1F
100
AcDbEntity
  8
0
  6
Continuous
 62
     7
370
    25
100
AcDbLine
 10
6425.0187484219
 20
4477.7822180511
 30
0.0
 11
6426.5187589123
 21
4477.7822180511
 31
0.0
  0
LINE
  5
266
330
1F
100
AcDbEntity
  8
0
  6
Continuous
 62
     7
370
    25
100
AcDbLine
 10
6021.5187577202
 20
4380.7822151901
 30
0.0
 11
6021.5187577202
 21
4477.7822180511
 31
0.0
  0
LINE
  5
267
330
1F
100
AcDbEntity
  8
0
  6
Continuous
 62
     7
370
    25
100
AcDbLine
 10
6020.0187472298
 20
4380.7822151901
 30
0.0
 11
6021.5187577202
 21
4380.7822151901
 31
0.0
  0
LINE
  5
268
330
1F
100
AcDbEntity
  8
0
  6
Continuous
 62
     7
370
    25
100
AcDbLine
 10
6528.0187634423
 20
4380.7822151901
 30
0.0
 11
6526.5187529519
 21
4380.7822151901
 31
0.0
  0
LINE
  5
269
330
1F
100
AcDbEntity
  8
0
  6
Continuous
 62
     7
370
    25
100
AcDbLine
 10
6526.5187529519
 20
4477.7822180511
 30
0.0
 11
6526.5187529519
 21
4380.7822151901
 31
0.0
  0
LINE
  5
26A
330
1F
100
AcDbEntity
  8
0
  6
Continuous
 62
     7
370
    25
100
AcDbLine
 10
6426.5187589123
 20
4477.7822180511
 30
0.0
 11
6426.5187589123
 21
4400.6779401423
 31
0.0
  0
LINE
  5
26B
330
1F
100
AcDbEntity
  8
0
  6
Continuous
 62
     7
370
    25
100
AcDbLine
 10
6121.5187517598
 20
4477.7822180511
 30
0.0
 11
6121.5187517598
 21
4400.6779401423
 31
0.0
  0
LINE
  5
26C
330
1F
100
AcDbEntity
  8
0
  6
Continuous
 62
     7
370
    25
100
AcDbLine
 10
6361.5187538459
 20
4409.2822207929
 30
0.0
 11
6186.5187568262
 21
4409.2822207929
 31
0.0
  0
LINE
  5
26D
330
1F
100
AcDbEntity
  8
0
  6
Continuous
 62
     7
370
    25
100
AcDbLine
 10
6525.0187424615
 20
4377.782216561
 30
0.0
 11
6525.0187424615
 21
4379.2822196008
 31
0.0
  0
ARC
  5
26E
330
1F
100
AcDbEntity
  8
0
  6
Continuous
 62
     7
370
    25
100
AcDbCircle
 10
6525.0187553361
 20
4380.7822184087
 30
0.0
 40
1.5
100
AcDbArc
 50
270.0
 51
0.0
  0
ARC
  5
26F
330
1F
100
AcDbEntity
  8
0
  6
Continuous
 62
     7
370
    25
100
AcDbCircle
 10
6023.0187553361
 20
4380.7822184087
 30
0.0
 40
1.5
100
AcDbArc
 50
180.0
 51
270.0
  0
LINE
  5
270
330
1F
100
AcDbEntity
  8
0
  6
Continuous
 62
     7
370
    25
100
AcDbLine
 10
6023.0187682107
 20
4377.782216561
 30
0.0
 11
6023.0187682107
 21
4379.2822196008
 31
0.0
  0
LINE
  5
271
330
1F
100
AcDbEntity
  8
0
  6
Continuous
 62
     7
370
    25
100
AcDbLine
 10
6525.0187424615
 20
4379.2822196008
 30
0.0
 11
6461.4324627116
 21
4379.2822196008
 31
0.0
  0
LINE
  5
272
330
1F
100
AcDbEntity
  8
0
  6
Continuous
 62
     7
370
    25
100
AcDbLine
 10
6023.0187682107
 20
4379.2822196008
 30
0.0
 11
6086.6050479605
 21
4379.2822196008
 31
0.0
  0
LINE
  5
273
330
1F
100
AcDbEntity
  8
0
  6
Continuous
 62
     7
370
    25
100
AcDbLine
 10
6036.5187583163
 20
4259.2822185578
 30
0.0
 11
6036.5187583163
 21
4254.2822196008
 31
0.0
  0
LINE
  5
274
330
1F
100
AcDbEntity
  8
0
  6
Continuous
 62
     7
370
    25
100
AcDbLine
 10
6031.5187481835
 20
4254.2822196008
 30
0.0
 11
6036.5187583163
 21
4254.2822196008
 31
0.0
  0
LINE
  5
275
330
1F
100
AcDbEntity
  8
0
  6
Continuous
 62
     7
370
    25
100
AcDbLine
 10
6511.5187523558
 20
4254.2822196008
 30
0.0
 11
6511.5187523558
 21
4259.2822185578
 31
0.0
  0
LINE
  5
276
330
1F
100
AcDbEntity
  8
0
  6
Continuous
 62
     7
370
    25
100
AcDbLine
 10
6511.5187523558
 20
4254.2822196008
 30
0.0
 11
6516.5187624886
 21
4254.2822196008
 31
0.0
  0
ARC
  5
277
330
1F
100
AcDbEntity
  8
0
  6
Continuous
 62
     7
370
    25
100
AcDbCircle
 10
6361.5187553361
 20
4254.2822184087
 30
0.0
 40
150.0
100
AcDbArc
 50
270.0
 51
0.0
  0
LINE
  5
278
330
1F
100
AcDbEntity
  8
0
  6
Continuous
 62
     7
370
    25
100
AcDbLine
 10
6361.5187538459
 20
4104.2822136404
 30
0.0
 11
6361.5187538459
 21
4099.2822184087
 31
0.0
  0
ARC
  5
279
330
1F
100
AcDbEntity
  8
0
  6
Continuous
 62
     7
370
    25
100
AcDbCircle
 10
6186.5187553361
 20
4254.2822184087
 30
0.0
 40
150.0000000000009
100
AcDbArc
 50
180.0
 51
270.0
  0
LINE
  5
27A
330
1F
100
AcDbEntity
  8
0
  6
Continuous
 62
     7
370
    25
100
AcDbLine
 10
6186.5187568262
 20
4104.2822136404
 30
0.0
 11
6186.5187568262
 21
4099.2822184087
 31
0.0
  0
LINE
  5
27B
330
1F
100
AcDbEntity
  8
0
  6
Continuous
 62
     7
370
    25
100
AcDbLine
 10
6016.5187624886
 20
4069.2822172167
 30
0.0
 11
6016.5187624886
 21
4064.282221985
 31
0.0
  0
ARC
  5
27C
330
1F
100
AcDbEntity
  8
0
  6
Continuous
 62
     7
370
    25
100
AcDbCircle
 10
6016.5187553361
 20
4104.2822184087
 30
0.0
 40
40.0
100
AcDbArc
 50
180.0
 51
270.0
  0
ARC
  5
27D
330
1F
100
AcDbEntity
  8
0
  6
Continuous
 62
     7
370
    25
100
AcDbCircle
 10
6531.5187553361
 20
4104.2822184087
 30
0.0
 40
40.00000000000091
100
AcDbArc
 50
270.0
 51
0.0
  0
LINE
  5
27E
330
1F
100
AcDbEntity
  8
0
  6
Continuous
 62
     7
370
    25
100
AcDbLine
 10
6531.5187481835
 20
4069.2822172167
 30
0.0
 11
6531.5187481835
 21
4064.282221985
 31
0.0
  0
LINE
  5
27F
330
1F
100
AcDbEntity
  8
0
  6
Continuous
 62
     7
370
    25
100
AcDbLine
 10
6186.5187568262
 20
4104.2822136404
 30
0.0
 11
6361.5187538459
 21
4104.2822136404
 31
0.0
  0
LINE
  5
280
330
1F
100
AcDbEntity
  8
0
  6
Continuous
 62
     7
370
    25
100
AcDbLine
 10
6531.5187481835
 20
4064.282221985
 30
0.0
 11
6016.5187624886
 21
4064.282221985
 31
0.0
  0
LWPOLYLINE
  5
281
330
1F
100
AcDbEntity
  8
0
  6
Continuous
 62
     7
370
    25
100
AcDbPolyline
 90
       19
 70
   128
 43
0.0
 10
6098.0263260796
 20
4204.7847418906
 10
6095.0069186881
 20
4200.7071508886
 10
6092.180108805
 20
4196.6482459428
 10
6089.5588306382
 20
4192.6266386034
 10
6087.155124326
 20
4188.6607690574
 10
6084.9800018265
 20
4184.7688018204
 10
6083.0434171155
 20
4180.9685884835
 10
6081.354266186
 20
4177.2775410535
 10
6079.9202827408
 20
4173.7125872494
 10
6078.748038192
 20
4170.2900587441
 10
6077.8429118588
 20
4167.0256539108
 10
6077.2090611651
 20
4163.9343335153
 10
6076.8493769362
 20
4161.0302611114
 10
6076.765513201
 20
4158.3267583372
 10
6076.9578424885
 20
4155.8362080576
 10
6077.4255005314
 20
4153.570024562
 10
6078.1663415625
 20
4151.5386237623
 10
6079.176968117
 20
4149.7512741806
 10
6080.4527310326
 20
4148.2162012579
  0
LWPOLYLINE
  5
282
330
1F
100
AcDbEntity
  8
0
  6
Continuous
 62
     7
370
    25
100
AcDbPolyline
 90
       19
 70
   128
 43
0.0
 10
6411.0162315562
 20
4165.7897963049
 10
6415.0938300088
 20
4162.7703889133
 10
6419.152727504
 20
4159.943564129
 10
6423.1743273928
 20
4157.3223008634
 10
6427.1402118399
 20
4154.9185945512
 10
6431.0321716263
 20
4152.7434571506
 10
6434.8323849633
 20
4150.8068724395
 10
6438.5234323933
 20
4149.1177215101
 10
6442.0883861973
 20
4147.6837380649
 10
6445.5109147027
 20
4146.5115084173
 10
6448.7753120854
 20
4145.6063820841
 10
6451.866647382
 20
4144.9725164892
 10
6454.7707048848
 20
4144.6128322603
 10
6457.4742225602
 20
4144.5289685251
 10
6459.9647728398
 20
4144.7213127138
 10
6462.2309414342
 20
4145.1889707567
 10
6464.2623571351
 20
4145.9298117878
 10
6466.0496918156
 20
4146.9404234411
 10
6467.5847796395
 20
4148.2162012579
  0
SPLINE
  5
283
330
1F
100
AcDbEntity
  8
0
  6
Continuous
 62
     7
370
    25
100
AcDbSpline
210
0.0
220
0.0
230
1.0
 70
     8
 71
     3
 72
    43
 73
    39
 74
     0
 42
0.000000001
 43
0.00000001
 40
0.0
 40
0.0
 40
0.0
 40
0.0
 40
0.1249999999999995
 40
0.1249999999999995
 40
0.1874999999999993
 40
0.1874999999999993
 40
0.2187499999999993
 40
0.2187499999999993
 40
0.2499999999999993
 40
0.2499999999999993
 40
0.3749999999999993
 40
0.3749999999999993
 40
0.4999999999999994
 40
0.4999999999999994
 40
0.5624999999999994
 40
0.5624999999999994
 40
0.5937499999999996
 40
0.5937499999999996
 40
0.6249999999999997
 40
0.6249999999999997
 40
0.6874999999999997
 40
0.6874999999999997
 40
0.7499999999999996
 40
0.7499999999999996
 40
0.8124999999999996
 40
0.8124999999999996
 40
0.8437499999999996
 40
0.8437499999999996
 40
0.8749999999999996
 40
0.8749999999999996
 40
0.9374999999999997
 40
0.9374999999999997
 40
0.9687499999999998
 40
0.9687499999999998
 40
0.9843749999999999
 40
0.9921874999999999
 40
0.9921874999999999
 40
1.0
 40
1.0
 40
1.0
 40
1.0
 10
6411.016230019115
 20
4165.789794359568
 30
0.0
 10
6409.413304210407
 20
4160.981016933442
 30
0.0
 10
6407.736068032705
 20
4156.414644921221
 30
0.0
 10
6405.101727714
 20
4149.915697054592
 30
0.0
 10
6404.203820667678
 20
4147.808017900483
 30
0.0
 10
6402.82592559325
 20
4144.734563361184
 30
0.0
 10
6402.360688773868
 20
4143.723177463378
 30
0.0
 10
6401.423998764749
 20
4141.739174177104
 30
0.0
 10
6400.95264812115
 20
4140.76666466273
 30
0.0
 10
6398.580650652781
 20
4135.999591282131
 30
0.0
 10
6396.634404320315
 20
4132.49019325844
 30
0.0
 10
6392.637059307446
 20
4126.050499344136
 30
0.0
 10
6390.586004933212
 20
4123.120328125146
 30
0.0
 10
6387.422122456098
 20
4119.159453286701
 30
0.0
 10
6386.352909312247
 20
4117.911773354524
 30
0.0
 10
6384.725730519092
 20
4116.151153563429
 30
0.0
 10
6384.179231251221
 20
4115.582625622567
 30
0.0
 10
6383.083165608927
 20
4114.487852677479
 30
0.0
 10
6382.533002123682
 20
4113.960937677382
 30
0.0
 10
6380.875877448637
 20
4112.441372896935
 30
0.0
 10
6379.76151820754
 20
4111.509462480123
 30
0.0
 10
6377.52451515451
 20
4109.816287272869
 30
0.0
 10
6376.400655020647
 20
4109.053779929017
 30
0.0
 10
6374.140943029737
 20
4107.695496170222
 30
0.0
 10
6373.005092866348
 20
4107.099720660663
 30
0.0
 10
6371.291277160409
 20
4106.331543764007
 30
0.0
 10
6370.718266693255
 20
4106.096436291352
 30
0.0
 10
6369.572567156477
 20
4105.669601352194
 30
0.0
 10
6368.99939995834
 20
4105.477645855231
 30
0.0
 10
6367.278701171548
 20
4104.965790779408
 30
0.0
 10
6366.129973608438
 20
4104.709839426939
 30
0.0
 10
6364.403500854613
 20
4104.453497307313
 30
0.0
 10
6363.827446143813
 20
4104.38932992748
 30
0.0
 10
6362.962391143926
 20
4104.325098930876
 30
0.0
 10
6362.529620359576
 20
4104.300989944677
 30
0.0
 10
6362.09646024895
 20
4104.288923124817
 30
0.0
 10
6361.807597569836
 20
4104.283559169271
 30
0.0
 10
6361.662495841077
 20
4104.282218408743
 30
0.0
 10
6361.518755336057
 20
4104.282218408743
 30
0.0
  0
LINE
  5
284
330
1F
100
AcDbEntity
  8
0
  6
Continuous
 62
     7
370
    25
100
AcDbLine
 10
6525.0187424615
 20
4379.2822196008
 30
0.0
 11
6525.0187424615
 21
4380.7822151901
 31
0.0
  0
LINE
  5
285
330
1F
100
AcDbEntity
  8
0
  6
Continuous
 62
     7
370
    25
100
AcDbLine
 10
6452.0774541094
 20
4380.7822151901
 30
0.0
 11
6525.0187424615
 21
4380.7822151901
 31
0.0
  0
LINE
  5
286
330
1F
100
AcDbEntity
  8
0
  6
Continuous
 62
     7
370
    25
100
AcDbLine
 10
6023.0187682107
 20
4380.7822151901
 30
0.0
 11
6095.9600565627
 21
4380.7822151901
 31
0.0
  0
LINE
  5
287
330
1F
100
AcDbEntity
  8
0
  6
Continuous
 62
     7
370
    25
100
AcDbLine
 10
6023.0187682107
 20
4380.7822151901
 30
0.0
 11
6023.0187682107
 21
4379.2822196008
 31
0.0
  0
LINE
  5
288
330
1F
100
AcDbEntity
  8
0
  6
Continuous
 62
     7
370
    25
100
AcDbLine
 10
6121.5187517598
 20
4477.7822180511
 30
0.0
 11
6120.0187561705
 21
4477.7822180511
 31
0.0
  0
LINE
  5
289
330
1F
100
AcDbEntity
  8
0
  6
Continuous
 62
     7
370
    25
100
AcDbLine
 10
6120.0187561705
 20
4395.4471110226
 30
0.0
 11
6120.0187561705
 21
4477.7822180511
 31
0.0
  0
LINE
  5
28A
330
1F
100
AcDbEntity
  8
0
  6
Continuous
 62
     7
370
    25
100
AcDbLine
 10
6428.0187545016
 20
4477.7822180511
 30
0.0
 11
6428.0187545016
 21
4395.4471110226
 31
0.0
  0
LINE
  5
28B
330
1F
100
AcDbEntity
  8
0
  6
Continuous
 62
     7
370
    25
100
AcDbLine
 10
6428.0187545016
 20
4477.7822180511
 30
0.0
 11
6426.5187589123
 21
4477.7822180511
 31
0.0
  0
LINE
  5
28C
330
1F
100
AcDbEntity
  8
0
  6
Continuous
 62
     7
370
    25
100
AcDbLine
 10
6120.0187561705
 20
4479.2822136404
 30
0.0
 11
6120.0187561705
 21
4477.7822180511
 31
0.0
  0
LINE
  5
28D
330
1F
100
AcDbEntity
  8
0
  6
Continuous
 62
     7
370
    25
100
AcDbLine
 10
6120.0187561705
 20
4477.7822180511
 30
0.0
 11
6023.0187682107
 21
4477.7822180511
 31
0.0
  0
LINE
  5
28E
330
1F
100
AcDbEntity
  8
0
  6
Continuous
 62
     7
370
    25
100
AcDbLine
 10
6023.0187682107
 20
4479.2822136404
 30
0.0
 11
6023.0187682107
 21
4477.7822180511
 31
0.0
  0
LINE
  5
28F
330
1F
100
AcDbEntity
  8
0
  6
Continuous
 62
     7
370
    25
100
AcDbLine
 10
6525.0187424615
 20
4479.2822136404
 30
0.0
 11
6525.0187424615
 21
4477.7822180511
 31
0.0
  0
LINE
  5
290
330
1F
100
AcDbEntity
  8
0
  6
Continuous
 62
     7
370
    25
100
AcDbLine
 10
6525.0187424615
 20
4477.7822180511
 30
0.0
 11
6428.0187545016
 21
4477.7822180511
 31
0.0
  0
LINE
  5
291
330
1F
100
AcDbEntity
  8
0
  6
Continuous
 62
     7
370
    25
100
AcDbLine
 10
6428.0187545016
 20
4479.2822136404
 30
0.0
 11
6428.0187545016
 21
4477.7822180511
 31
0.0
  0
LINE
  5
292
330
1F
100
AcDbEntity
  8
0
  6
Continuous
 62
     7
370
    25
100
AcDbLine
 10
6526.5187529519
 20
4477.7822180511
 30
0.0
 11
6525.0187424615
 21
4477.7822180511
 31
0.0
  0
LINE
  5
293
330
1F
100
AcDbEntity
  8
0
  6
Continuous
 62
     7
370
    25
100
AcDbLine
 10
6021.5187577202
 20
4477.7822180511
 30
0.0
 11
6023.0187682107
 21
4477.7822180511
 31
0.0
  0
LINE
  5
294
330
1F
100
AcDbEntity
  8
0
  6
Continuous
 62
     7
370
    25
100
AcDbLine
 10
6023.0187682107
 20
4477.7822180511
 30
0.0
 11
6023.0187682107
 21
4380.7822151901
 31
0.0
  0
LINE
  5
295
330
1F
100
AcDbEntity
  8
0
  6
Continuous
 62
     7
370
    25
100
AcDbLine
 10
6021.5187577202
 20
4380.7822151901
 30
0.0
 11
6023.0187682107
 21
4380.7822151901
 31
0.0
  0
LINE
  5
296
330
1F
100
AcDbEntity
  8
0
  6
Continuous
 62
     7
370
    25
100
AcDbLine
 10
6526.5187529519
 20
4380.7822151901
 30
0.0
 11
6525.0187424615
 21
4380.7822151901
 31
0.0
  0
LINE
  5
297
330
1F
100
AcDbEntity
  8
0
  6
Continuous
 62
     7
370
    25
100
AcDbLine
 10
6525.0187424615
 20
4380.7822151901
 30
0.0
 11
6525.0187424615
 21
4477.7822180511
 31
0.0
  0
ARC
  5
298
330
1F
100
AcDbEntity
  8
0
  6
Continuous
 62
     7
370
    25
100
AcDbCircle
 10
6361.5187553361
 20
4259.2822184087
 30
0.0
 40
151.5358983848621
100
AcDbArc
 50
53.3013966112
 51
63.970113767
  0
ARC
  5
299
330
1F
100
AcDbEntity
  8
0
  6
Continuous
 62
     7
370
    25
100
AcDbCircle
 10
6186.5187553361
 20
4259.2822184087
 30
0.0
 40
151.5358983848621
100
AcDbArc
 50
116.029886233
 51
126.6986033888
  0
LWPOLYLINE
  5
29A
330
1F
100
AcDbEntity
  8
0
  6
Continuous
 62
     7
370
    25
100
AcDbPolyline
 90
       10
 70
   128
 43
0.0
 10
6411.0162315562
 20
4165.7897963049
 10
6409.0102223351
 20
4171.8078090669
 10
6406.9482592538
 20
4177.9937206628
 10
6404.8369137242
 20
4184.3277423503
 10
6402.6829657748
 20
4190.7895936491
 10
6400.4932848408
 20
4197.3586140992
 10
6398.2749042704
 20
4204.0137707116
 10
6396.0349021151
 20
4210.7337846281
 10
6393.7804458335
 20
4217.4971460225
 10
6391.518755038
 20
4224.2822184087
  0
SPLINE
  5
29B
330
1F
100
AcDbEntity
  8
0
  6
Continuous
 62
     7
370
    25
100
AcDbSpline
210
0.0
220
0.0
230
1.0
 70
     8
 71
     3
 72
    46
 73
    42
 74
     0
 42
0.000000001
 43
0.00000001
 40
0.0
 40
0.0
 40
0.0
 40
0.0
 40
0.0084423448715863
 40
0.0169045551758699
 40
0.0253866683412046
 40
0.0338887215330857
 40
0.0424107516561211
 40
0.0509527953559954
 40
0.0595148890214175
 40
0.0680970687860519
 40
0.0766993705304486
 40
0.0853218298839553
 40
0.0939644822266139
 40
0.1026273626910556
 40
0.1113105061643733
 40
0.1200139472899885
 40
0.1287377204695024
 40
0.1374818598645424
 40
0.169978346521117
 40
0.2028692314554132
 40
0.2361561185928635
 40
0.2698405552577574
 40
0.3331577295808946
 40
0.398398403104913
 40
0.4597400175785784
 40
0.5234217358298272
 40
0.5826321199026423
 40
0.6447551016579711
 40
0.7022581358810437
 40
0.7637245797660517
 40
0.8194583790518596
 40
0.881718018639679
 40
0.8909682898153198
 40
0.9011916079656308
 40
0.9123879718882348
 40
0.9245573799323858
 40
0.9376998300698567
 40
0.951815319941394
 40
0.9669038468881936
 40
0.9829654079738445
 40
1.0
 40
1.0
 40
1.0
 40
1.0
 10
6137.021280529811
 20
4165.789794328266
 30
0.0
 10
6137.129065252488
 20
4165.467656572446
 30
0.0
 10
6137.344888322893
 20
4164.822623047957
 30
0.0
 10
6137.671976359125
 20
4163.861118927848
 30
0.0
 10
6138.001998097839
 20
4162.902732781282
 30
0.0
 10
6138.335168570213
 20
4161.948085353271
 30
0.0
 10
6138.671429955417
 20
4160.99714901677
 30
0.0
 10
6139.010797801046
 20
4160.050071041854
 30
0.0
 10
6139.353267926389
 20
4159.10695220848
 30
0.0
 10
6139.698841455449
 20
4158.167906321723
 30
0.0
 10
6140.047518086218
 20
4157.233044191978
 30
0.0
 10
6140.399297898678
 20
4156.30247793257
 30
0.0
 10
6140.754180875565
 20
4155.376319768513
 30
0.0
 10
6141.112167005293
 20
4154.454682415965
 30
0.0
 10
6141.473256351428
 20
4153.537678683195
 30
0.0
 10
6141.837448670177
 20
4152.625422613419
 30
0.0
 10
6142.204744875819
 20
4151.718025221306
 30
0.0
 10
6142.910231610645
 20
4149.999214666305
 30
0.0
 10
6143.971889147168
 20
4147.496620517338
 30
0.0
 10
6145.415128605995
 20
4144.26980469856
 30
0.0
 10
6146.905490179412
 20
4141.114114233907
 30
0.0
 10
6148.887632299859
 20
4137.146556390428
 30
0.0
 10
6151.421990448493
 20
4132.48182768766
 30
0.0
 10
6154.48066694433
 20
4127.470631829936
 30
0.0
 10
6157.628269364391
 20
4122.909249318373
 30
0.0
 10
6160.746921175071
 20
4118.944458566658
 30
0.0
 10
6163.94097913294
 20
4115.421072724886
 30
0.0
 10
6167.079775319434
 20
4112.460796039089
 30
0.0
 10
6170.302420735651
 20
4109.915971827551
 30
0.0
 10
6173.446222043527
 20
4107.900450268417
 30
0.0
 10
6176.704431919962
 20
4106.280071392795
 30
0.0
 10
6179.029672520933
 20
4105.454392284795
 30
0.0
 10
6180.527249044296
 20
4105.050823500272
 30
0.0
 10
6181.089687739534
 20
4104.912328874761
 30
0.0
 10
6181.706037972082
 20
4104.776255733173
 30
0.0
 10
6182.376318116554
 20
4104.646855217945
 30
0.0
 10
6183.100523513948
 20
4104.528809033912
 30
0.0
 10
6183.878655130623
 20
4104.426950689704
 30
0.0
 10
6184.710717074005
 20
4104.347411495833
 30
0.0
 10
6185.59669196684
 20
4104.292893879328
 30
0.0
 10
6186.205435171482
 20
4104.285845968749
 30
0.0
 10
6186.518755336057
 20
4104.282218408743
 30
0.0
  0
LWPOLYLINE
  5
29C
330
1F
100
AcDbEntity
  8
0
  6
Continuous
 62
     7
370
    25
100
AcDbPolyline
 90
       10
 70
   128
 43
0.0
 10
6156.5187556341
 20
4224.2822184087
 10
6154.2570648387
 20
4217.4971460225
 10
6152.002608557
 20
4210.7337846281
 10
6149.7626064017
 20
4204.0137707116
 10
6147.5442258313
 20
4197.3586140992
 10
6145.3545448973
 20
4190.7895936491
 10
6143.2005969479
 20
4184.3277423503
 10
6141.0892514184
 20
4177.9937206628
 10
6139.027288337
 20
4171.8078090669
 10
6137.0212791159
 20
4165.7897963049
  0
LINE
  5
29D
330
1F
100
AcDbEntity
  8
0
  6
Continuous
 62
     7
370
    25
100
AcDbLine
 10
6156.5187556341
 20
4224.2822184087
 30
0.0
 11
6391.518755038
 21
4224.2822184087
 31
0.0
  0
SPLINE
  5
29E
330
1F
100
AcDbEntity
  8
0
  6
Continuous
 62
     7
370
    25
100
AcDbSpline
210
0.0
220
0.0
230
1.0
 70
     8
 71
     3
 72
    38
 73
    34
 74
     0
 42
0.000000001
 43
0.00000001
 40
0.0
 40
0.0
 40
0.0
 40
0.0
 40
0.0090091910051343
 40
0.0180495695782946
 40
0.0271225040914643
 40
0.0362293246900815
 40
0.0453713232141162
 40
0.0545497531673897
 40
0.0637658297331608
 40
0.0730207298339433
 40
0.0823155922334819
 40
0.0916515176788069
 40
0.1010295690802899
 40
0.1104507717276405
 40
0.1199161135398152
 40
0.1808608392845752
 40
0.2440765343836235
 40
0.3062364357932915
 40
0.3712565876086923
 40
0.4339332810187438
 40
0.500002074536117
 40
0.5623771458119242
 40
0.6287475345725448
 40
0.6898426755949484
 40
0.7559274884059392
 40
0.8143017282117027
 40
0.8800876214775953
 40
0.9086404349921418
 40
0.9406450550090567
 40
0.9517696570202996
 40
0.9653701576649666
 40
0.9814470882660622
 40
0.9999999999999999
 40
0.9999999999999999
 40
0.9999999999999999
 40
0.9999999999999999
 10
6467.584772551023
 20
4148.216201267745
 30
0.0
 10
6467.66013046948
 20
4148.292871880108
 30
0.0
 10
6467.811107176678
 20
4148.446478519332
 30
0.0
 10
6468.02926175252
 20
4148.685961208088
 30
0.0
 10
6468.241738851436
 20
4148.932659794222
 30
0.0
 10
6468.44784116151
 20
4149.187280093173
 30
0.0
 10
6468.647659716813
 20
4149.449735535174
 30
0.0
 10
6468.84106693898
 20
4149.7201549049
 30
0.0
 10
6469.027988246972
 20
4149.998610734593
 30
0.0
 10
6469.208329179528
 20
4150.285192453538
 30
0.0
 10
6469.381995301945
 20
4150.579986467098
 30
0.0
 10
6469.548887329198
 20
4150.8830819062
 30
0.0
 10
6469.708902098976
 20
4151.194567251334
 30
0.0
 10
6469.861935108799
 20
4151.514537688238
 30
0.0
 10
6470.272198327686
 20
4152.438122992661
 30
0.0
 10
6470.821968100347
 20
4154.108327445867
 30
0.0
 10
6471.245210259079
 20
4156.72650006714
 30
0.0
 10
6471.32276042857
 20
4159.68669662464
 30
0.0
 10
6471.03859746085
 20
4162.907470719892
 30
0.0
 10
6470.382183552446
 20
4166.451719860903
 30
0.0
 10
6469.371770760205
 20
4170.18051337754
 30
0.0
 10
6467.981989414071
 20
4174.196243163598
 30
0.0
 10
6466.281265885077
 20
4178.293989403112
 30
0.0
 10
6464.212010121332
 20
4182.633990382044
 30
0.0
 10
6461.915067239895
 20
4186.923545076535
 30
0.0
 10
6459.265002567122
 20
4191.42647127334
 30
0.0
 10
6456.908206239993
 20
4195.103681168749
 30
0.0
 10
6454.826669262819
 20
4198.171610202417
 30
0.0
 10
6453.598024090188
 20
4199.919304067466
 30
0.0
 10
6452.600583697917
 20
4201.305202651852
 30
0.0
 10
6451.872533720927
 20
4202.302880548767
 30
0.0
 10
6450.998404730606
 20
4203.482901342041
 30
0.0
 10
6450.355574959469
 20
4204.330593282725
 30
0.0
 10
6450.011179397731
 20
4204.78474359623
 30
0.0
  0
SPLINE
  5
29F
330
1F
100
AcDbEntity
  8
0
  6
Continuous
 62
     7
370
    25
100
AcDbSpline
210
0.0
220
0.0
230
1.0
 70
     8
 71
     3
 72
    39
 73
    35
 74
     0
 42
0.000000001
 43
0.00000001
 40
0.0
 40
0.0
 40
0.0
 40
0.0
 40
0.0093934476700912
 40
0.018752207379886
 40
0.0280780116491599
 40
0.0373726385521774
 40
0.0466379112632146
 40
0.0558756975234437
 40
0.065087909027468
 40
0.0742765007281605
 40
0.0834434700588223
 40
0.0925908560721136
 40
0.1017207384956361
 40
0.110835236704541
 40
0.1199365086120202
 40
0.1822709105070714
 40
0.2441180777077294
 40
0.3076744355560267
 40
0.3713198130985274
 40
0.4353350675088911
 40
0.500087265238264
 40
0.6244288826174235
 40
0.7558612600901546
 40
0.78598538662611
 40
0.8167151077152816
 40
0.848069628679248
 40
0.880065043586346
 40
0.8965380660808971
 40
0.9132284230863494
 40
0.9301380418274877
 40
0.9472686273440488
 40
0.9646216671894018
 40
0.9821984360079523
 40
1.0
 40
1.0
 40
1.0
 40
1.0
 10
6080.452738195059
 20
4148.216201193777
 30
0.0
 10
6080.532695715924
 20
4148.137669461529
 30
0.0
 10
6080.692315491911
 20
4147.980895997651
 30
0.0
 10
6080.940653611632
 20
4147.755516038955
 30
0.0
 10
6081.194849529869
 20
4147.537774576352
 30
0.0
 10
6081.455509587669
 20
4147.328256301217
 30
0.0
 10
6081.722397395012
 20
4147.126702436585
 30
0.0
 10
6081.995511539108
 20
4146.933081944898
 30
0.0
 10
6082.274798569523
 20
4146.747306029947
 30
0.0
 10
6082.560229863486
 20
4146.569304316345
 30
0.0
 10
6082.851781249505
 20
4146.399004661002
 30
0.0
 10
6083.149439263437
 20
4146.236338346264
 30
0.0
 10
6083.45319765747
 20
4146.081239695865
 30
0.0
 10
6083.763066271045
 20
4145.933642717137
 30
0.0
 10
6084.69515972519
 20
4145.52022049443
 30
0.0
 10
6086.363794214394
 20
4144.974105039681
 30
0.0
 10
6089.003664640872
 20
4144.552358883387
 30
0.0
 10
6091.946532693006
 20
4144.478397430008
 30
0.0
 10
6095.191613289408
 20
4144.769276361725
 30
0.0
 10
6098.713889773793
 20
4145.424436659181
 30
0.0
 10
6103.653037618382
 20
4146.766935389674
 30
0.0
 10
6110.43370082571
 20
4149.343482374911
 30
0.0
 10
6116.97022974254
 20
4152.649004063032
 30
0.0
 10
6121.494593301572
 20
4155.259656925262
 30
0.0
 10
6123.686129310406
 20
4156.58049592425
 30
0.0
 10
6125.94149882394
 20
4157.997598594216
 30
0.0
 10
6127.869111259311
 20
4159.25851166424
 30
0.0
 10
6129.449178044017
 20
4160.323232787413
 30
0.0
 10
6130.666528449928
 20
4161.159749331942
 30
0.0
 10
6131.902566426501
 20
4162.025650026984
 30
0.0
 10
6133.157016923319
 20
4162.921238984562
 30
0.0
 10
6134.429516208746
 20
4163.84734673265
 30
0.0
 10
6135.719631067413
 20
4164.80272773765
 30
0.0
 10
6136.585563316823
 20
4165.459381343877
 30
0.0
 10
6137.021280523543
 20
4165.789794347069
 30
0.0
  0
ARC
  5
2A0
330
1F
100
AcDbEntity
  8
0
  6
Continuous
 62
     7
370
    25
100
AcDbCircle
 10
6282.7894587298
 20
4333.0115466672
 30
0.0
 40
210.7254589832481
100
AcDbArc
 50
307.4812354721
 51
322.5187535806
  0
ARC
  5
2A1
330
1F
100
AcDbEntity
  8
0
  6
Continuous
 62
     7
370
    25
100
AcDbCircle
 10
6265.2480519423
 20
4333.0115466672
 30
0.0
 40
210.7254589832474
100
AcDbArc
 50
217.4812464194
 51
232.5187645279
  0
LINE
  5
2A2
330
1F
100
AcDbEntity
  8
0
  6
Continuous
 62
     7
370
    25
100
AcDbLine
 10
6186.5187568262
 20
4409.2822207929
 30
0.0
 11
6186.5187568262
 21
4349.2822184087
 31
0.0
  0
ARC
  5
2A3
330
1F
100
AcDbEntity
  8
0
  6
Continuous
 62
     7
370
    25
100
AcDbCircle
 10
6186.5187553361
 20
4259.2822184087
 30
0.0
 40
90.00000000000091
100
AcDbArc
 50
90.0
 51
109.4712206345
  0
LINE
  5
2A4
330
1F
100
AcDbEntity
  8
0
  6
Continuous
 62
     7
370
    25
100
AcDbLine
 10
6361.5187538459
 20
4409.2822207929
 30
0.0
 11
6361.5187538459
 21
4349.2822184087
 31
0.0
  0
LINE
  5
2A5
330
1F
100
AcDbEntity
  8
0
  6
Continuous
 62
     7
370
    25
100
AcDbLine
 10
6361.5187538459
 20
4349.2822184087
 30
0.0
 11
6186.5187568262
 21
4349.2822184087
 31
0.0
  0
ARC
  5
2A6
330
1F
100
AcDbEntity
  8
0
  6
Continuous
 62
     7
370
    25
100
AcDbCircle
 10
6361.5187553361
 20
4259.2822184087
 30
0.0
 40
90.00000000000091
100
AcDbArc
 50
70.5287793655
 51
90.0
  0
LWPOLYLINE
  5
2A7
330
1F
100
AcDbEntity
  8
0
  6
Continuous
 62
     8
370
    25
100
AcDbPolyline
 90
        8
 70
   128
 43
0.0
 10
6286.1505636617
 20
4439.7822155477
 10
6285.120136258
 20
4439.6024181368
 10
6284.1193528518
 20
4439.0681817056
 10
6283.1770024865
 20
4438.1948991539
 10
6282.3201968938
 20
4437.0076640369
 10
6281.5735835254
 20
4435.5406596185
 10
6280.9586419396
 20
4433.8360561849
 10
6280.9182788848
 20
4433.6997254612
  0
SPLINE
  5
2A8
330
1F
100
AcDbEntity
  8
0
  6
Continuous
 62
     8
370
    25
100
AcDbSpline
210
0.0
220
0.0
230
1.0
 70
     8
 71
     3
 72
    31
 73
    27
 74
     0
 42
0.000000001
 43
0.00000001
 40
0.0
 40
0.0
 40
0.0
 40
0.0
 40
0.0473318991584089
 40
0.0946650874421743
 40
0.1433616344189879
 40
0.1920603369805682
 40
0.2454618722874973
 40
0.2988669859244164
 40
0.3539330966053095
 40
0.4090031188941967
 40
0.4544671435906318
 40
0.4999840043418524
 40
0.545453383838279
 40
0.5927531819447078
 40
0.6401048141907185
 40
0.6874092411323023
 40
0.7256162627672564
 40
0.7638236616286266
 40
0.8024136372446531
 40
0.8410039188308324
 40
0.8791395817393939
 40
0.9173640249742462
 40
0.9586044629863847
 40
0.9813529201801925
 40
0.993978011703659
 40
1.0
 40
1.0
 40
1.0
 40
1.0
 10
6156.51875563408
 20
4344.135033232133
 30
0.0
 10
6153.322570478815
 20
4343.540338383314
 30
0.0
 10
6146.930113117407
 20
4342.350932488645
 30
0.0
 10
6137.386488363303
 20
4340.172805686077
 30
0.0
 10
6127.943449724869
 20
4337.693689182954
 30
0.0
 10
6118.378054018909
 20
4334.799890580994
 30
0.0
 10
6108.87763811808
 20
4331.497564386989
 30
0.0
 10
6099.450587460641
 20
4327.737170410811
 30
0.0
 10
6090.467155156005
 20
4323.626418232075
 30
0.0
 10
6082.486613376033
 20
4319.443488893006
 30
0.0
 10
6075.523918256335
 20
4315.304133964463
 30
0.0
 10
6069.479466242538
 20
4311.274008256976
 30
0.0
 10
6063.836895726094
 20
4307.040336217256
 30
0.0
 10
6058.638180531874
 20
4302.609902195678
 30
0.0
 10
6053.913489940076
 20
4297.995062843083
 30
0.0
 10
6050.007519472444
 20
4293.572069855475
 30
0.0
 10
6046.813699486548
 20
4289.378274343974
 30
0.0
 10
6044.213047865534
 20
4285.425503002884
 30
0.0
 10
6041.978789064095
 20
4281.412381128083
 30
0.0
 10
6040.12335418547
 20
4277.362299013478
 30
0.0
 10
6038.649796635161
 20
4273.293366517041
 30
0.0
 10
6037.526136663694
 20
4269.10589295262
 30
0.0
 10
6036.896175708416
 20
4265.450272844976
 30
0.0
 10
6036.636100987891
 20
4262.705286549746
 30
0.0
 10
6036.555261392807
 20
4261.22128974653
 30
0.0
 10
6036.537592368943
 20
4260.552676835102
 30
0.0
 10
6036.531886239301
 20
4260.336751383702
 30
0.0
  0
SPLINE
  5
2A9
330
1F
100
AcDbEntity
  8
0
  6
Continuous
 62
     8
370
    25
100
AcDbSpline
210
0.0
220
0.0
230
1.0
 70
     8
 71
     3
 72
    27
 73
    23
 74
     0
 42
0.000000001
 43
0.00000001
 40
0.0
 40
0.0
 40
0.0
 40
0.0
 40
0.0144482804085952
 40
0.0568515914007593
 40
0.0961083058538058
 40
0.1353648326248849
 40
0.1879848593556092
 40
0.2406609633624373
 40
0.2932770710201035
 40
0.3503621707103592
 40
0.4077154955630978
 40
0.4651358452293006
 40
0.5224423726395381
 40
0.5794881030505241
 40
0.6351589750614111
 40
0.6910361047755742
 40
0.7468926019108547
 40
0.8025351653439298
 40
0.8518212433868904
 40
0.9012788801061775
 40
0.9507269689692324
 40
1.0
 40
1.0
 40
1.0
 40
1.0
 10
6511.325618405591
 20
4263.276940477053
 30
0.0
 10
6511.281613777536
 20
4263.780449498575
 30
0.0
 10
6511.108462851396
 20
4265.761674139062
 30
0.0
 10
6510.504627660406
 20
4269.104179708756
 30
0.0
 10
6509.389819564584
 20
4273.291822887722
 30
0.0
 10
6507.753181061881
 20
4277.806211755029
 30
0.0
 10
6505.414887201262
 20
4282.737943567862
 30
0.0
 10
6502.193524896336
 20
4288.051031848323
 30
0.0
 10
6498.205459735951
 20
4293.420138576788
 30
0.0
 10
6493.364105355147
 20
4298.817739056876
 30
0.0
 10
6487.61765977963
 20
4304.211591509416
 30
0.0
 10
6481.125754224034
 20
4309.431272484164
 30
0.0
 10
6473.927922146163
 20
4314.434024847041
 30
0.0
 10
6466.110813409558
 20
4319.149238323481
 30
0.0
 10
6457.69898803909
 20
4323.555410316674
 30
0.0
 10
6448.762786858535
 20
4327.650502349073
 30
0.0
 10
6439.299574046277
 20
4331.44362553373
 30
0.0
 10
6429.752873866796
 20
4334.771376025195
 30
0.0
 10
6420.227027809096
 20
4337.651069251252
 30
0.0
 10
6410.825993990449
 20
4340.121954873676
 30
0.0
 10
6401.237696566497
 20
4342.322854544616
 30
0.0
 10
6394.75457013293
 20
4343.531688193525
 30
0.0
 10
6391.518755038033
 20
4344.135033232133
 30
0.0
  0
ENDSEC
  0
SECTION
  2
OBJECTS
  0
DICTIONARY
  5
C
330
0
100
AcDbDictionary
281
     1
  3
ACAD_GROUP
350
D
  3
ACAD_LAYOUT
350
1A
  3
ACAD_MLINESTYLE
350
17
  3
ACAD_PLOTSETTINGS
350
19
  3
ACAD_PLOTSTYLENAME
350
E
  3
ACAD_SCALELIST
350
47
  0
DICTIONARY
  5
D
102
{ACAD_REACTORS
330
C
102
}
330
C
100
AcDbDictionary
281
     1
  0
DICTIONARY
  5
1A
102
{ACAD_REACTORS
330
C
102
}
330
C
100
AcDbDictionary
281
     1
  3
Layout1
350
1E
  3
Layout2
350
26
  3
Model
350
22
  0
DICTIONARY
  5
17
102
{ACAD_REACTORS
330
C
102
}
330
C
100
AcDbDictionary
281
     1
  3
Standard
350
18
  0
DICTIONARY
  5
19
102
{ACAD_REACTORS
330
C
102
}
330
C
100
AcDbDictionary
281
     1
  0
ACDBDICTIONARYWDFLT
  5
E
102
{ACAD_REACTORS
330
C
102
}
330
C
100
AcDbDictionary
281
     1
  3
Normal
350
F
100
AcDbDictionaryWithDefault
340
F
  0
DICTIONARY
  5
47
102
{ACAD_REACTORS
330
C
102
}
330
C
100
AcDbDictionary
281
     1
  3
A0
350
48
  3
A1
350
49
  3
A2
350
4A
  3
A3
350
4B
  3
A4
350
4C
  3
A5
350
4D
  3
A6
350
4E
  3
A7
350
4F
  3
A8
350
50
  3
A9
350
51
  3
B0
350
52
  3
B1
350
53
  3
B2
350
54
  3
B3
350
55
  3
B4
350
56
  3
B5
350
57
  3
B6
350
58
  3
B7
350
59
  3
B8
350
5A
  3
B9
350
5B
  3
C0
350
5C
  3
C1
350
5D
  3
C2
350
5E
  3
C3
350
5F
  3
C4
350
60
  3
C5
350
61
  3
C6
350
62
  3
C7
350
63
  3
C8
350
64
  3
C9
350
65
  3
D0
350
66
  3
D1
350
67
  3
D2
350
68
  0
LAYOUT
  5
1E
102
{ACAD_REACTORS
330
1A
102
}
330
1A
100
AcDbPlotSettings
  1

  2
none_device
  4

  6

 40
0.0
 41
0.0
 42
0.0
 43
0.0
 44
0.0
 45
0.0
 46
0.0
 47
0.0
 48
0.0
 49
0.0
140
0.0
141
0.0
142
1.0
143
1.0
 70
   688
 72
     1
 73
     0
 74
     5
  7

 75
    16
147
1.0
148
0.0
149
0.0
100
AcDbLayout
  1
Layout1
 70
     1
 71
     1
 10
0.0
 20
0.0
 11
420.0
 21
297.0
 12
0.0
 22
0.0
 32
0.0
 14
1.0000000000E+20
 24
1.0000000000E+20
 34
1.0000000000E+20
 15
-1.0000000000E+20
 25
-1.0000000000E+20
 35
-1.0000000000E+20
146
0.0
 13
0.0
 23
0.0
 33
0.0
 16
1.0
 26
0.0
 36
0.0
 17
0.0
 27
1.0
 37
0.0
 76
     0
330
1B
  0
LAYOUT
  5
26
102
{ACAD_REACTORS
330
1A
102
}
330
1A
100
AcDbPlotSettings
  1

  2
none_device
  4

  6

 40
0.0
 41
0.0
 42
0.0
 43
0.0
 44
0.0
 45
0.0
 46
0.0
 47
0.0
 48
0.0
 49
0.0
140
0.0
141
0.0
142
1.0
143
1.0
 70
   688
 72
     1
 73
     0
 74
     5
  7

 75
    16
147
1.0
148
0.0
149
0.0
100
AcDbLayout
  1
Layout2
 70
     1
 71
     2
 10
0.0
 20
0.0
 11
0.0
 21
0.0
 12
0.0
 22
0.0
 32
0.0
 14
0.0
 24
0.0
 34
0.0
 15
0.0
 25
0.0
 35
0.0
146
0.0
 13
0.0
 23
0.0
 33
0.0
 16
1.0
 26
0.0
 36
0.0
 17
0.0
 27
1.0
 37
0.0
 76
     0
330
23
  0
LAYOUT
  5
22
102
{ACAD_REACTORS
330
1A
102
}
330
1A
100
AcDbPlotSettings
  1

  2
none_device
  4
Letter_(8.50_x_11.00_Inches)
  6

 40
6.35
 41
6.35
 42
6.35000508
 43
6.35000508
 44
215.9
 45
279.4
 46
0.0
 47
0.0
 48
0.0
 49
0.0
140
0.0
141
0.0
142
1.0
143
1.0
 70
  1712
 72
     1
 73
     0
 74
     0
  7

 75
     0
147
1.0
148
0.0
149
0.0
100
AcDbLayout
  1
Model
 70
     1
 71
     0
 10
0.0
 20
0.0
 11
20000.0
 21
10000.0
 12
0.0
 22
0.0
 32
0.0
 14
0.0
 24
0.0
 34
0.0
 15
20000.0
 25
10000.0
 35
0.0
146
0.0
 13
0.0
 23
0.0
 33
0.0
 16
1.0
 26
0.0
 36
0.0
 17
0.0
 27
1.0
 37
0.0
 76
     0
330
1F
331
29
  0
MLINESTYLE
  5
18
102
{ACAD_REACTORS
330
17
102
}
330
17
100
AcDbMlineStyle
  2
Standard
 70
     0
  3

 62
   256
 51
90.0
 52
90.0
 71
     2
 49
0.5
 62
   256
  6
BYLAYER
 49
-0.5
 62
   256
  6
BYLAYER
  0
ACDBPLACEHOLDER
  5
F
102
{ACAD_REACTORS
330
E
102
}
330
E
  0
SCALE
  5
48
102
{ACAD_REACTORS
330
47
102
}
330
47
100
AcDbScale
 70
     0
300
1:1
140
1.0
141
1.0
290
     1
  0
SCALE
  5
49
102
{ACAD_REACTORS
330
47
102
}
330
47
100
AcDbScale
 70
     0
300
1:2
140
1.0
141
2.0
290
     0
  0
SCALE
  5
4A
102
{ACAD_REACTORS
330
47
102
}
330
47
100
AcDbScale
 70
     0
300
1:4
140
1.0
141
4.0
290
     0
  0
SCALE
  5
4B
102
{ACAD_REACTORS
330
47
102
}
330
47
100
AcDbScale
 70
     0
300
1:5
140
1.0
141
5.0
290
     0
  0
SCALE
  5
4C
102
{ACAD_REACTORS
330
47
102
}
330
47
100
AcDbScale
 70
     0
300
1:8
140
1.0
141
8.0
290
     0
  0
SCALE
  5
4D
102
{ACAD_REACTORS
330
47
102
}
330
47
100
AcDbScale
 70
     0
300
1:10
140
1.0
141
10.0
290
     0
  0
SCALE
  5
4E
102
{ACAD_REACTORS
330
47
102
}
330
47
100
AcDbScale
 70
     0
300
1:16
140
1.0
141
16.0
290
     0
  0
SCALE
  5
4F
102
{ACAD_REACTORS
330
47
102
}
330
47
100
AcDbScale
 70
     0
300
1:20
140
1.0
141
20.0
290
     0
  0
SCALE
  5
50
102
{ACAD_REACTORS
330
47
102
}
330
47
100
AcDbScale
 70
     0
300
1:30
140
1.0
141
30.0
290
     0
  0
SCALE
  5
51
102
{ACAD_REACTORS
330
47
102
}
330
47
100
AcDbScale
 70
     0
300
1:40
140
1.0
141
40.0
290
     0
  0
SCALE
  5
52
102
{ACAD_REACTORS
330
47
102
}
330
47
100
AcDbScale
 70
     0
300
1:50
140
1.0
141
50.0
290
     0
  0
SCALE
  5
53
102
{ACAD_REACTORS
330
47
102
}
330
47
100
AcDbScale
 70
     0
300
1:100
140
1.0
141
100.0
290
     0
  0
SCALE
  5
54
102
{ACAD_REACTORS
330
47
102
}
330
47
100
AcDbScale
 70
     0
300
2:1
140
2.0
141
1.0
290
     0
  0
SCALE
  5
55
102
{ACAD_REACTORS
330
47
102
}
330
47
100
AcDbScale
 70
     0
300
4:1
140
4.0
141
1.0
290
     0
  0
SCALE
  5
56
102
{ACAD_REACTORS
330
47
102
}
330
47
100
AcDbScale
 70
     0
300
8:1
140
8.0
141
1.0
290
     0
  0
SCALE
  5
57
102
{ACAD_REACTORS
330
47
102
}
330
47
100
AcDbScale
 70
     0
300
10:1
140
10.0
141
1.0
290
     0
  0
SCALE
  5
58
102
{ACAD_REACTORS
330
47
102
}
330
47
100
AcDbScale
 70
     0
300
100:1
140
100.0
141
1.0
290
     0
  0
SCALE
  5
59
102
{ACAD_REACTORS
330
47
102
}
330
47
100
AcDbScale
 70
     0
300
1/128" = 1'-0"
140
0.0078125
141
12.0
290
     0
  0
SCALE
  5
5A
102
{ACAD_REACTORS
330
47
102
}
330
47
100
AcDbScale
 70
     0
300
1/64" = 1'-0"
140
0.015625
141
12.0
290
     0
  0
SCALE
  5
5B
102
{ACAD_REACTORS
330
47
102
}
330
47
100
AcDbScale
 70
     0
300
1/32" = 1'-0"
140
0.03125
141
12.0
290
     0
  0
SCALE
  5
5C
102
{ACAD_REACTORS
330
47
102
}
330
47
100
AcDbScale
 70
     0
300
1/16" = 1'-0"
140
0.0625
141
12.0
290
     0
  0
SCALE
  5
5D
102
{ACAD_REACTORS
330
47
102
}
330
47
100
AcDbScale
 70
     0
300
3/32" = 1'-0"
140
0.09375
141
12.0
290
     0
  0
SCALE
  5
5E
102
{ACAD_REACTORS
330
47
102
}
330
47
100
AcDbScale
 70
     0
300
1/8" = 1'-0"
140
0.125
141
12.0
290
     0
  0
SCALE
  5
5F
102
{ACAD_REACTORS
330
47
102
}
330
47
100
AcDbScale
 70
     0
300
3/16" = 1'-0"
140
0.1875
141
12.0
290
     0
  0
SCALE
  5
60
102
{ACAD_REACTORS
330
47
102
}
330
47
100
AcDbScale
 70
     0
300
1/4" = 1'-0"
140
0.25
141
12.0
290
     0
  0
SCALE
  5
61
102
{ACAD_REACTORS
330
47
102
}
330
47
100
AcDbScale
 70
     0
300
3/8" = 1'-0"
140
0.375
141
12.0
290
     0
  0
SCALE
  5
62
102
{ACAD_REACTORS
330
47
102
}
330
47
100
AcDbScale
 70
     0
300
1/2" = 1'-0"
140
0.5
141
12.0
290
     0
  0
SCALE
  5
63
102
{ACAD_REACTORS
330
47
102
}
330
47
100
AcDbScale
 70
     0
300
3/4" = 1'-0"
140
0.75
141
12.0
290
     0
  0
SCALE
  5
64
102
{ACAD_REACTORS
330
47
102
}
330
47
100
AcDbScale
 70
     0
300
1" = 1'-0"
140
1.0
141
12.0
290
     0
  0
SCALE
  5
65
102
{ACAD_REACTORS
330
47
102
}
330
47
100
AcDbScale
 70
     0
300
1-1/2" = 1'-0"
140
1.5
141
12.0
290
     0
  0
SCALE
  5
66
102
{ACAD_REACTORS
330
47
102
}
330
47
100
AcDbScale
 70
     0
300
3" = 1'-0"
140
3.0
141
12.0
290
     0
  0
SCALE
  5
67
102
{ACAD_REACTORS
330
47
102
}
330
47
100
AcDbScale
 70
     0
300
6" = 1'-0"
140
6.0
141
12.0
290
     0
  0
SCALE
  5
68
102
{ACAD_REACTORS
330
47
102
}
330
47
100
AcDbScale
 70
     0
300
1'-0" = 1'-0"
140
12.0
141
12.0
290
     0
  0
ENDSEC
  0
EOF
