  0
SECTION
  2
HEADER
  9
$ACADVER
  1
AC1015
  9
$ACADMAINTVER
 70
     6
  9
$DWGCODEPAGE
  3
ANSI_1250
  9
$INSBASE
 10
0.0
 20
0.0
 30
0.0
  9
$EXTMIN
 10
0.0
 20
0.0
 30
0.0
  9
$EXTMAX
 10
20000.0
 20
10000.0
 30
0.0
  9
$LIMMIN
 10
0.0
 20
0.0
  9
$LIMMAX
 10
20000.0
 20
10000.0
  9
$ORTHOMODE
 70
     0
  9
$REGENMODE
 70
     1
  9
$FILLMODE
 70
     1
  9
$QTEXTMODE
 70
     0
  9
$MIRRTEXT
 70
     1
  9
$LTSCALE
 40
1.0
  9
$ATTMODE
 70
     1
  9
$TEXTSIZE
 40
2.0
  9
$TRACEWID
 40
1.0
  9
$TEXTSTYLE
  7
Standard
  9
$CLAYER
  8
0
  9
$CELTYPE
  6
ByLayer
  9
$CECOLOR
 62
   256
  9
$CELTSCALE
 40
1.0
  9
$DISPSILH
 70
     0
  9
$DIMSCALE
 40
1.0
  9
$DIMASZ
 40
2.0
  9
$DIMEXO
 40
1.0
  9
$DIMDLI
 40
3.75
  9
$DIMRND
 40
0.0
  9
$DIMDLE
 40
0.0
  9
$DIMEXE
 40
1.0
  9
$DIMTP
 40
0.0
  9
$DIMTM
 40
0.0
  9
$DIMTXT
 40
2.0
  9
$DIMCEN
 40
2.5
  9
$DIMTSZ
 40
0.0
  9
$DIMTOL
 70
     0
  9
$DIMLIM
 70
     0
  9
$DIMTIH
 70
     1
  9
$DIMTOH
 70
     1
  9
$DIMSE1
 70
     0
  9
$DIMSE2
 70
     0
  9
$DIMTAD
 70
     1
  9
$DIMZIN
 70
     0
  9
$DIMBLK
  1

  9
$DIMASO
 70
     1
  9
$DIMSHO
 70
     1
  9
$DIMPOST
  1

  9
$DIMAPOST
  1

  9
$DIMALT
 70
     0
  9
$DIMALTD
 70
     3
  9
$DIMALTF
 40
0.0393700787
  9
$DIMLFAC
 40
1.0
  9
$DIMTOFL
 70
     1
  9
$DIMTVP
 40
0.0
  9
$DIMTIX
 70
     0
  9
$DIMSOXD
 70
     0
  9
$DIMSAH
 70
     0
  9
$DIMBLK1
  1

  9
$DIMBLK2
  1

  9
$DIMSTYLE
  2
ISO-25
  9
$DIMCLRD
 70
     0
  9
$DIMCLRE
 70
     0
  9
$DIMCLRT
 70
     0
  9
$DIMTFAC
 40
1.0
  9
$DIMGAP
 40
1.524
  9
$DIMJUST
 70
     0
  9
$DIMSD1
 70
     0
  9
$DIMSD2
 70
     0
  9
$DIMTOLJ
 70
     0
  9
$DIMTZIN
 70
     0
  9
$DIMALTZ
 70
     0
  9
$DIMALTTZ
 70
     0
  9
$DIMUPT
 70
     0
  9
$DIMDEC
 70
     2
  9
$DIMTDEC
 70
     0
  9
$DIMALTU
 70
     2
  9
$DIMALTTD
 70
     3
  9
$DIMTXSTY
  7
Standard
  9
$DIMAUNIT
 70
     0
  9
$DIMADEC
 70
     2
  9
$DIMALTRND
 40
0.0
  9
$DIMAZIN
 70
     0
  9
$DIMDSEP
 70
    44
  9
$DIMATFIT
 70
     3
  9
$DIMFRAC
 70
     0
  9
$DIMLDRBLK
  1

  9
$DIMLUNIT
 70
     2
  9
$DIMLWD
 70
    -2
  9
$DIMLWE
 70
    -2
  9
$DIMTMOVE
 70
     0
  9
$LUNITS
 70
     2
  9
$LUPREC
 70
     3
  9
$SKETCHINC
 40
1.0
  9
$FILLETRAD
 40
10.0
  9
$AUNITS
 70
     0
  9
$AUPREC
 70
     2
  9
$MENU
  1
.
  9
$ELEVATION
 40
0.0
  9
$PELEVATION
 40
0.0
  9
$THICKNESS
 40
0.0
  9
$LIMCHECK
 70
     0
  9
$CHAMFERA
 40
0.0
  9
$CHAMFERB
 40
0.0
  9
$CHAMFERC
 40
0.0
  9
$CHAMFERD
 40
0.0
  9
$SKPOLY
 70
     0
  9
$TDCREATE
 40
2458673.44113456
  9
$TDUCREATE
 40
2458673.357801227
  9
$TDUPDATE
 40
2458673.441134919
  9
$TDUUPDATE
 40
2458673.357801585
  9
$TDINDWG
 40
0.0000000116
  9
$TDUSRTIMER
 40
0.0000000116
  9
$USRTIMER
 70
     1
  9
$ANGBASE
 50
0.0
  9
$ANGDIR
 70
     0
  9
$PDMODE
 70
     0
  9
$PDSIZE
 40
-1.0
  9
$PLINEWID
 40
0.0
  9
$SPLFRAME
 70
     0
  9
$SPLINETYPE
 70
     6
  9
$SPLINESEGS
 70
     8
  9
$HANDSEED
  5
17D
  9
$SURFTAB1
 70
     6
  9
$SURFTAB2
 70
     6
  9
$SURFTYPE
 70
     6
  9
$SURFU
 70
     6
  9
$SURFV
 70
     6
  9
$UCSBASE
  2

  9
$UCSNAME
  2

  9
$UCSORG
 10
0.0
 20
0.0
 30
0.0
  9
$UCSXDIR
 10
1.0
 20
0.0
 30
0.0
  9
$UCSYDIR
 10
0.0
 20
1.0
 30
0.0
  9
$UCSORTHOREF
  2

  9
$UCSORTHOVIEW
 70
     0
  9
$UCSORGTOP
 10
0.0
 20
0.0
 30
0.0
  9
$UCSORGBOTTOM
 10
0.0
 20
0.0
 30
0.0
  9
$UCSORGLEFT
 10
0.0
 20
0.0
 30
0.0
  9
$UCSORGRIGHT
 10
0.0
 20
0.0
 30
0.0
  9
$UCSORGFRONT
 10
0.0
 20
0.0
 30
0.0
  9
$UCSORGBACK
 10
0.0
 20
0.0
 30
0.0
  9
$PUCSBASE
  2

  9
$PUCSNAME
  2

  9
$PUCSORG
 10
0.0
 20
0.0
 30
0.0
  9
$PUCSXDIR
 10
1.0
 20
0.0
 30
0.0
  9
$PUCSYDIR
 10
0.0
 20
1.0
 30
0.0
  9
$PUCSORTHOREF
  2

  9
$PUCSORTHOVIEW
 70
     0
  9
$PUCSORGTOP
 10
0.0
 20
0.0
 30
0.0
  9
$PUCSORGBOTTOM
 10
0.0
 20
0.0
 30
0.0
  9
$PUCSORGLEFT
 10
0.0
 20
0.0
 30
0.0
  9
$PUCSORGRIGHT
 10
0.0
 20
0.0
 30
0.0
  9
$PUCSORGFRONT
 10
0.0
 20
0.0
 30
0.0
  9
$PUCSORGBACK
 10
0.0
 20
0.0
 30
0.0
  9
$USERI1
 70
     0
  9
$USERI2
 70
     0
  9
$USERI3
 70
     0
  9
$USERI4
 70
     0
  9
$USERI5
 70
     0
  9
$USERR1
 40
0.0
  9
$USERR2
 40
0.0
  9
$USERR3
 40
0.0
  9
$USERR4
 40
0.0
  9
$USERR5
 40
0.0
  9
$WORLDVIEW
 70
     1
  9
$SHADEDGE
 70
     3
  9
$SHADEDIF
 70
    70
  9
$TILEMODE
 70
     1
  9
$MAXACTVP
 70
    64
  9
$PINSBASE
 10
0.0
 20
0.0
 30
0.0
  9
$PLIMCHECK
 70
     0
  9
$PEXTMIN
 10
1.0000000000E+20
 20
1.0000000000E+20
 30
1.0000000000E+20
  9
$PEXTMAX
 10
-1.0000000000E+20
 20
-1.0000000000E+20
 30
-1.0000000000E+20
  9
$PLIMMIN
 10
0.0
 20
0.0
  9
$PLIMMAX
 10
420.0
 20
297.0
  9
$UNITMODE
 70
     0
  9
$VISRETAIN
 70
     1
  9
$PLINEGEN
 70
     0
  9
$PSLTSCALE
 70
     1
  9
$TREEDEPTH
 70
  3020
  9
$CMLSTYLE
  2
Standard
  9
$CMLJUST
 70
     0
  9
$CMLSCALE
 40
20.0
  9
$PROXYGRAPHICS
 70
     1
  9
$MEASUREMENT
 70
     1
  9
$CELWEIGHT
370
    -1
  9
$ENDCAPS
280
     0
  9
$JOINSTYLE
280
     0
  9
$LWDISPLAY
290
     1
  9
$INSUNITS
 70
     4
  9
$HYPERLINKBASE
  1

  9
$STYLESHEET
  1

  9
$XEDIT
290
     1
  9
$CEPSNTYPE
380
     0
  9
$PSTYLEMODE
290
     1
  9
$FINGERPRINTGUID
  2
{53EFF313-F639-4343-8C17-E3DBF0144AFC}
  9
$VERSIONGUID
  2
{FAEB1C32-E019-11D5-929B-00C0DF256EC4}
  9
$EXTNAMES
290
     1
  9
$PSVPSCALE
 40
0.0
  9
$OLESTARTUP
290
     0
  0
ENDSEC
  0
SECTION
  2
CLASSES
  0
CLASS
  1
ACDBDICTIONARYWDFLT
  2
AcDbDictionaryWithDefault
  3
ObjectDBX Classes
 90
        0
280
     0
281
     0
  0
CLASS
  1
VISUALSTYLE
  2
AcDbVisualStyle
  3
ObjectDBX Classes
 90
     4095
280
     0
281
     0
  0
CLASS
  1
MATERIAL
  2
AcDbMaterial
  3
ObjectDBX Classes
 90
     1153
280
     0
281
     0
  0
CLASS
  1
SCALE
  2
AcDbScale
  3
ObjectDBX Classes
 90
     1153
280
     0
281
     0
  0
CLASS
  1
TABLESTYLE
  2
AcDbTableStyle
  3
ObjectDBX Classes
 90
     4095
280
     0
281
     0
  0
CLASS
  1
MLEADERSTYLE
  2
AcDbMLeaderStyle
  3
ACDB_MLEADERSTYLE_CLASS
 90
     4095
280
     0
281
     0
  0
CLASS
  1
SUN
  2
AcDbSun
  3
SCENEOE
 90
     1153
280
     0
281
     0
  0
CLASS
  1
ACDBPLACEHOLDER
  2
AcDbPlaceHolder
  3
ObjectDBX Classes
 90
        0
280
     0
281
     0
  0
CLASS
  1
LAYOUT
  2
AcDbLayout
  3
ObjectDBX Classes
 90
        0
280
     0
281
     0
  0
ENDSEC
  0
SECTION
  2
TABLES
  0
TABLE
  2
VPORT
  5
8
330
0
100
AcDbSymbolTable
 70
     1
  0
VPORT
  5
29
330
8
100
AcDbSymbolTableRecord
100
AcDbViewportTableRecord
  2
*Active
 70
     0
 10
0.0
 20
0.0
 11
1.0
 21
1.0
 12
10000.0
 22
5000.0
 13
0.0
 23
0.0
 14
10.0
 24
10.0
 15
10.0
 25
10.0
 16
0.0
 26
0.0
 36
1.0
 17
0.0
 27
0.0
 37
0.0
 40
10000.0
 41
2.0
 42
50.0
 43
0.0
 44
0.0
 50
0.0
 51
0.0
 71
     0
 72
  2000
 73
     1
 74
     3
 75
     0
 76
     0
 77
     0
 78
     0
281
     0
 65
     1
110
0.0
120
0.0
130
0.0
111
1.0
121
0.0
131
0.0
112
0.0
122
1.0
132
0.0
 79
     0
146
0.0
  0
ENDTAB
  0
TABLE
  2
LTYPE
  5
5
330
0
100
AcDbSymbolTable
 70
     6
  0
LTYPE
  5
14
330
5
100
AcDbSymbolTableRecord
100
AcDbLinetypeTableRecord
  2
ByBlock
 70
     0
  3

 72
    65
 73
     0
 40
0.0
  0
LTYPE
  5
15
330
5
100
AcDbSymbolTableRecord
100
AcDbLinetypeTableRecord
  2
ByLayer
 70
     0
  3

 72
    65
 73
     0
 40
0.0
  0
LTYPE
  5
16
330
5
100
AcDbSymbolTableRecord
100
AcDbLinetypeTableRecord
  2
Continuous
 70
     0
  3
Solid line
 72
    65
 73
     0
 40
0.0
  0
LTYPE
  5
6E
330
5
100
AcDbSymbolTableRecord
100
AcDbLinetypeTableRecord
  2
HIDDEN
 70
     0
  3
Hidden __ __ __ __ __ __ __ __ __ __ __ __ __ __
 72
    65
 73
     2
 40
1.905
 49
1.27
 74
     0
 49
-0.635
 74
     0
  0
LTYPE
  5
6F
330
5
100
AcDbSymbolTableRecord
100
AcDbLinetypeTableRecord
  2
PHANTOM
 70
     0
  3
Phantom ______  __  __  ______  __  __  ______
 72
    65
 73
     6
 40
12.7
 49
6.35
 74
     0
 49
-1.27
 74
     0
 49
1.27
 74
     0
 49
-1.27
 74
     0
 49
1.27
 74
     0
 49
-1.27
 74
     0
  0
LTYPE
  5
70
330
5
100
AcDbSymbolTableRecord
100
AcDbLinetypeTableRecord
  2
CENTER
 70
     0
  3
Center ____ _ ____ _ ____ _ ____ _ ____ _ ____
 72
    65
 73
     4
 40
10.16
 49
6.35
 74
     0
 49
-1.27
 74
     0
 49
1.27
 74
     0
 49
-1.27
 74
     0
  0
LTYPE
  5
71
330
5
100
AcDbSymbolTableRecord
100
AcDbLinetypeTableRecord
  2
CENTERX2
 70
     0
  3
Center (2x) ________  __  ________  __  _____
 72
    65
 73
     4
 40
20.32
 49
12.7
 74
     0
 49
-2.54
 74
     0
 49
2.54
 74
     0
 49
-2.54
 74
     0
  0
LTYPE
  5
72
330
5
100
AcDbSymbolTableRecord
100
AcDbLinetypeTableRecord
  2
DOT2
 70
     0
  3
Dot (.5x) ........................................
 72
    65
 73
     2
 40
0.635
 49
0.0
 74
     0
 49
-0.635
 74
     0
  0
ENDTAB
  0
TABLE
  2
LAYER
  5
2
330
0
100
AcDbSymbolTable
 70
    13
  0
LAYER
  5
10
330
2
100
AcDbSymbolTableRecord
100
AcDbLayerTableRecord
  2
0
 70
     0
 62
     7
  6
Continuous
370
    -3
390
F
  0
LAYER
  5
73
330
2
100
AcDbSymbolTableRecord
100
AcDbLayerTableRecord
  2
FORMAT
 70
     0
 62
     7
  6
Continuous
370
    -3
390
F
  0
LAYER
  5
74
330
2
100
AcDbSymbolTableRecord
100
AcDbLayerTableRecord
  2
OSA
 70
     0
 62
     7
  6
CENTER
370
    -3
390
F
  0
LAYER
  5
75
330
2
100
AcDbSymbolTableRecord
100
AcDbLayerTableRecord
  2
0_35
 70
     0
 62
     7
  6
Continuous
370
    35
390
F
  0
LAYER
  5
76
330
2
100
AcDbSymbolTableRecord
100
AcDbLayerTableRecord
  2
0_5
 70
     0
 62
     7
  6
Continuous
370
    50
390
F
  0
LAYER
  5
77
330
2
100
AcDbSymbolTableRecord
100
AcDbLayerTableRecord
  2
0_25
 70
     0
 62
     7
  6
Continuous
370
    25
390
F
  0
LAYER
  5
78
330
2
100
AcDbSymbolTableRecord
100
AcDbLayerTableRecord
  2
0_18
 70
     0
 62
     7
  6
Continuous
370
    -3
390
F
  0
LAYER
  5
79
330
2
100
AcDbSymbolTableRecord
100
AcDbLayerTableRecord
  2
SLD-0
 70
     0
 62
   179
  6
Continuous
370
    -3
390
F
  0
LAYER
  5
7A
330
2
100
AcDbSymbolTableRecord
100
AcDbLayerTableRecord
  2
KOTY
 70
     0
 62
     7
  6
Continuous
370
    -3
390
F
  0
LAYER
  5
7B
330
2
100
AcDbSymbolTableRecord
100
AcDbLayerTableRecord
  2
SILNA
 70
     0
 62
   179
  6
Continuous
370
    -3
390
F
  0
LAYER
  5
7C
330
2
100
AcDbSymbolTableRecord
100
AcDbLayerTableRecord
  2
0_18_1
 70
     0
 62
   179
  6
Continuous
370
    -3
390
F
  0
LAYER
  5
7D
330
2
100
AcDbSymbolTableRecord
100
AcDbLayerTableRecord
  2
0_35_1
 70
     0
 62
   179
  6
Continuous
370
    35
390
F
  0
LAYER
  5
7E
330
2
100
AcDbSymbolTableRecord
100
AcDbLayerTableRecord
  2
0_5_1
 70
     0
 62
   179
  6
Continuous
370
    50
390
F
  0
ENDTAB
  0
TABLE
  2
STYLE
  5
3
330
0
100
AcDbSymbolTable
 70
     1
  0
STYLE
  5
11
330
3
100
AcDbSymbolTableRecord
100
AcDbTextStyleTableRecord
  2
Standard
 70
     0
 40
0.0
 41
1.0
 50
0.0
 71
     0
 42
2.0
  3
txt
  4

  0
ENDTAB
  0
TABLE
  2
VIEW
  5
6
330
0
100
AcDbSymbolTable
 70
     0
  0
ENDTAB
  0
TABLE
  2
UCS
  5
7
330
0
100
AcDbSymbolTable
 70
     0
  0
ENDTAB
  0
TABLE
  2
APPID
  5
9
330
0
100
AcDbSymbolTable
 70
     1
  0
APPID
  5
12
330
9
100
AcDbSymbolTableRecord
100
AcDbRegAppTableRecord
  2
ACAD
 70
     0
  0
ENDTAB
  0
TABLE
  2
DIMSTYLE
  5
A
330
0
100
AcDbSymbolTable
 70
     1
100
AcDbDimStyleTable
  0
DIMSTYLE
105
27
330
A
100
AcDbSymbolTableRecord
100
AcDbDimStyleTableRecord
  2
ISO-25
 70
     0
 41
2.5
 42
0.625
 43
3.75
 44
1.25
 73
     0
 74
     0
 77
     1
 78
     8
140
2.5
141
2.5
143
0.0393700787
147
0.625
171
     3
172
     1
178
     0
271
     2
272
     2
274
     3
278
    44
283
     0
284
     8
340
11
  0
ENDTAB
  0
TABLE
  2
BLOCK_RECORD
  5
1
330
0
100
AcDbSymbolTable
 70
     1
  0
BLOCK_RECORD
  5
1F
330
1
100
AcDbSymbolTableRecord
100
AcDbBlockTableRecord
  2
*Model_Space
340
22
  0
BLOCK_RECORD
  5
1B
330
1
100
AcDbSymbolTableRecord
100
AcDbBlockTableRecord
  2
*Paper_Space
340
1E
  0
BLOCK_RECORD
  5
23
330
1
100
AcDbSymbolTableRecord
100
AcDbBlockTableRecord
  2
*Paper_Space0
340
26
  0
ENDTAB
  0
ENDSEC
  0
SECTION
  2
BLOCKS
  0
BLOCK
  5
20
330
1F
100
AcDbEntity
  8
0
100
AcDbBlockBegin
  2
*Model_Space
 70
     0
 10
0.0
 20
0.0
 30
0.0
  3
*Model_Space
  1

  0
ENDBLK
  5
21
330
1F
100
AcDbEntity
  8
0
100
AcDbBlockEnd
  0
BLOCK
  5
1C
330
1B
100
AcDbEntity
 67
     1
  8
0
100
AcDbBlockBegin
  2
*Paper_Space
 70
     0
 10
0.0
 20
0.0
 30
0.0
  3
*Paper_Space
  1

  0
ENDBLK
  5
1D
330
1B
100
AcDbEntity
 67
     1
  8
0
100
AcDbBlockEnd
  0
BLOCK
  5
24
330
23
100
AcDbEntity
  8
0
100
AcDbBlockBegin
  2
*Paper_Space0
 70
     0
 10
0.0
 20
0.0
 30
0.0
  3
*Paper_Space0
  1

  0
ENDBLK
  5
25
330
23
100
AcDbEntity
  8
0
100
AcDbBlockEnd
  0
ENDSEC
  0
SECTION
  2
ENTITIES
  0
LINE
  5
7F
330
1F
100
AcDbEntity
  8
0
  6
Continuous
 62
     7
370
    25
100
AcDbLine
 10
6262.0187553361
 20
5330.7687571974
 30
0.0
 11
6262.0187553361
 21
5324.5433252919
 31
0.0
  0
LINE
  5
80
330
1F
100
AcDbEntity
  8
0
  6
Continuous
 62
     7
370
    25
100
AcDbLine
 10
6286.0187553361
 20
5324.5433252919
 30
0.0
 11
6286.0187553361
 21
5330.7691997121
 31
0.0
  0
LINE
  5
81
330
1F
100
AcDbEntity
  8
0
  6
Continuous
 62
     7
370
    25
100
AcDbLine
 10
6262.0647691532
 20
5324.4518236185
 30
0.0
 11
6263.0609346685
 21
5323.4632540599
 31
0.0
  0
LINE
  5
82
330
1F
100
AcDbEntity
  8
0
  6
Continuous
 62
     7
370
    25
100
AcDbLine
 10
6284.9765760037
 20
5323.4632540599
 30
0.0
 11
6285.972741519
 21
5324.4518236185
 31
0.0
  0
SPLINE
  5
83
330
1F
100
AcDbEntity
  8
0
  6
Continuous
 62
     7
370
    25
100
AcDbSpline
210
0.0
220
0.0
230
1.0
 70
     8
 71
     3
 72
    31
 73
    27
 74
     0
 42
0.000000001
 43
0.00000001
 40
0.0
 40
0.0
 40
0.0
 40
0.0
 40
0.0176415840200184
 40
0.049657129568817
 40
0.0896502847763671
 40
0.1414658992106172
 40
0.1965065230662442
 40
0.2569825281170278
 40
0.2927500768788835
 40
0.326873361529587
 40
0.3943350418927971
 40
0.4557216842663174
 40
0.5130624009677068
 40
0.5742420888934883
 40
0.6325395801442022
 40
0.6889123482485965
 40
0.7359737422668098
 40
0.7607855769554687
 40
0.7718193536320607
 40
0.7807131897313699
 40
0.7895032094018444
 40
0.8372733759753955
 40
0.8843435675015768
 40
0.930169029096265
 40
0.974587896923826
 40
1.0
 40
1.0
 40
1.0
 40
1.0
 10
6297.398188611728
 20
5320.779333295941
 30
0.0
 10
6297.347045867927
 20
5321.095645190447
 30
0.0
 10
6297.203090435548
 20
5321.985992718868
 30
0.0
 10
6296.946451508693
 20
5323.406430967053
 30
0.0
 10
6296.566615691644
 20
5325.371358286628
 30
0.0
 10
6296.092120653704
 20
5327.524379747708
 30
0.0
 10
6295.503620121999
 20
5329.828968490647
 30
0.0
 10
6294.906760974959
 20
5331.798632442541
 30
0.0
 10
6294.322203972683
 20
5333.431553273093
 30
0.0
 10
6293.725044298688
 20
5334.944051880422
 30
0.0
 10
6292.917717252993
 20
5336.73548348097
 30
0.0
 10
6291.848166767302
 20
5338.697252372126
 30
0.0
 10
6290.645046314537
 20
5340.53771620054
 30
0.0
 10
6289.281826401127
 20
5342.259401421686
 30
0.0
 10
6287.762142370653
 20
5343.83011206074
 30
0.0
 10
6286.258530507188
 20
5345.101206608962
 30
0.0
 10
6285.088291782608
 20
5345.933757704464
 30
0.0
 10
6284.310914657171
 20
5346.422881070313
 30
0.0
 10
6283.975028369397
 20
5346.624995493441
 30
0.0
 10
6283.610270641454
 20
5346.835959317701
 30
0.0
 10
6282.838508135658
 20
5347.260692661494
 30
0.0
 10
6281.562075639334
 20
5347.867675343321
 30
0.0
 10
6279.855040216072
 20
5348.479709943132
 30
0.0
 10
6278.271317341563
 20
5348.891602790846
 30
0.0
 10
6277.0253609921
 20
5349.122302985005
 30
0.0
 10
6276.391849393884
 20
5349.1917663295
 30
0.0
 10
6276.161308964251
 20
5349.217044650099
 30
0.0
  0
SPLINE
  5
84
330
1F
100
AcDbEntity
  8
0
  6
Continuous
 62
     7
370
    25
100
AcDbSpline
210
0.0
220
0.0
230
1.0
 70
     8
 71
     3
 72
    25
 73
    21
 74
     0
 42
0.000000001
 43
0.00000001
 40
0.0
 40
0.0
 40
0.0
 40
0.0
 40
0.0170176221294833
 40
0.0733865524037842
 40
0.1309154938939316
 40
0.1893927825512923
 40
0.2484652083627915
 40
0.3080081618903464
 40
0.3684406009375327
 40
0.4307516921775503
 40
0.4963674841481964
 40
0.5580237796511768
 40
0.6230979502850698
 40
0.6924329349708057
 40
0.7633901670168034
 40
0.8309849150832835
 40
0.8794168727591138
 40
0.92576083280839
 40
0.9691302726985198
 40
1.0
 40
1.0
 40
1.0
 40
1.0
 10
6268.85899425873
 20
5348.557844011193
 30
0.0
 10
6268.700648935126
 20
5348.518229845758
 30
0.0
 10
6268.017802806557
 20
5348.347398280369
 30
0.0
 10
6266.701238505212
 20
5347.870076727631
 30
0.0
 10
6264.972166545875
 20
5347.091480199064
 30
0.0
 10
6263.248653691125
 20
5346.092559505156
 30
0.0
 10
6261.608114589321
 20
5344.911268305528
 30
0.0
 10
6260.090987322682
 20
5343.575873030062
 30
0.0
 10
6258.714007328592
 20
5342.118827969993
 30
0.0
 10
6257.455249161286
 20
5340.52879479652
 30
0.0
 10
6256.384336232907
 20
5338.934216278183
 30
0.0
 10
6255.356081922617
 20
5337.147551419053
 30
0.0
 10
6254.401018887516
 20
5335.169886911691
 30
0.0
 10
6253.521022549382
 20
5332.965195965436
 30
0.0
 10
6252.738522184497
 20
5330.572931395412
 30
0.0
 10
6252.122811729312
 20
5328.26971816931
 30
0.0
 10
6251.63680514335
 20
5326.191286525135
 30
0.0
 10
6251.235358055494
 20
5324.245108649507
 30
0.0
 10
6250.900724824784
 20
5322.432701956218
 30
0.0
 10
6250.707972781425
 20
5321.201555669146
 30
0.0
 10
6250.627823673612
 20
5320.689627106531
 30
0.0
  0
SPLINE
  5
85
330
1F
100
AcDbEntity
  8
0
  6
Continuous
 62
     7
370
    25
100
AcDbSpline
210
0.0
220
0.0
230
1.0
 70
     8
 71
     3
 72
    22
 73
    18
 74
     0
 42
0.000000001
 43
0.00000001
 40
0.0
 40
0.0
 40
0.0
 40
0.0
 40
0.0455390867332259
 40
0.1267812812372007
 40
0.2034497786476641
 40
0.2764248080115241
 40
0.3536630434026709
 40
0.4274199664947538
 40
0.4982704562935944
 40
0.566898019271998
 40
0.6353785319692736
 40
0.7037264315901592
 40
0.7710343063895186
 40
0.8378799090609725
 40
0.9040328013825472
 40
0.9697953558922984
 40
0.9999999999999999
 40
0.9999999999999999
 40
0.9999999999999999
 40
0.9999999999999999
 10
6299.473917170464
 20
5264.919866349915
 30
0.0
 10
6299.46868333228
 20
5265.824924165359
 30
0.0
 10
6299.454112273476
 20
5268.344614340703
 30
0.0
 10
6299.415311577699
 20
5272.375057048721
 30
0.0
 10
6299.357784567808
 20
5276.930168322845
 30
0.0
 10
6299.284296605726
 20
5281.37742891342
 30
0.0
 10
6299.194084840989
 20
5285.728961372564
 30
0.0
 10
6299.085378367856
 20
5289.986664729327
 30
0.0
 10
6298.961710104341
 20
5294.016533181299
 30
0.0
 10
6298.822462510093
 20
5297.873504269219
 30
0.0
 10
6298.667509091972
 20
5301.605607971425
 30
0.0
 10
6298.496137142307
 20
5305.225584290672
 30
0.0
 10
6298.308750542482
 20
5308.716858661121
 30
0.0
 10
6298.106610545402
 20
5312.065594039132
 30
0.0
 10
6297.88813711569
 20
5315.262365877536
 30
0.0
 10
6297.698810595194
 20
5317.791641761654
 30
0.0
 10
6297.576051028521
 20
5319.200258155519
 30
0.0
 10
6297.537413774589
 20
5319.643605022718
 30
0.0
  0
SPLINE
  5
86
330
1F
100
AcDbEntity
  8
0
  6
Continuous
 62
     7
370
    25
100
AcDbSpline
210
0.0
220
0.0
230
1.0
 70
     8
 71
     3
 72
    23
 73
    19
 74
     0
 42
0.000000001
 43
0.00000001
 40
0.0
 40
0.0
 40
0.0
 40
0.0
 40
0.0114012182909793
 40
0.075962021079853
 40
0.1398291058851015
 40
0.2050479066659298
 40
0.2708049780976943
 40
0.336863755863995
 40
0.403913671234308
 40
0.4715171881131403
 40
0.5399693079261809
 40
0.607955551284768
 40
0.6774931819086536
 40
0.7498178127372989
 40
0.8252228197408937
 40
0.9040350628449756
 40
0.9866151205538082
 40
1.0
 40
1.0
 40
1.0
 40
1.0
 10
6250.499293050834
 20
5319.651021485838
 30
0.0
 10
6250.484492441446
 20
5319.485526303034
 30
0.0
 10
6250.385881558508
 20
5318.382894264608
 30
0.0
 10
6250.220161618462
 20
5316.21860975811
 30
0.0
 10
6250.001747659718
 20
5313.145260242664
 30
0.0
 10
6249.799493444619
 20
5309.926246107585
 30
0.0
 10
6249.610870836343
 20
5306.567571128327
 30
0.0
 10
6249.437195870618
 20
5303.078449833573
 30
0.0
 10
6249.278599232579
 20
5299.467628232265
 30
0.0
 10
6249.135320307159
 20
5295.732354522532
 30
0.0
 10
6249.008652331901
 20
5291.907377756776
 30
0.0
 10
6248.899024818581
 20
5287.981465673887
 30
0.0
 10
6248.804494765313
 20
5283.930473557702
 30
0.0
 10
6248.723769421218
 20
5279.693585959811
 30
0.0
 10
6248.656295467342
 20
5275.241715537982
 30
0.0
 10
6248.603907477255
 20
5270.560784226095
 30
0.0
 10
6248.573623125166
 20
5267.094753640543
 30
0.0
 10
6248.563916974447
 20
5265.186705415755
 30
0.0
 10
6248.562563191899
 20
5264.920577012784
 30
0.0
  0
ARC
  5
87
330
1F
100
AcDbEntity
  8
0
  6
Continuous
 62
     7
370
    25
100
AcDbCircle
 10
6282.5939908456
 20
5318.3865509107
 30
0.0
 40
15.00000000000343
100
AcDbArc
 50
4.8780674751
 51
9.3369752443
  0
ARC
  5
88
330
1F
100
AcDbEntity
  8
0
  6
Continuous
 62
     7
370
    25
100
AcDbCircle
 10
6265.4435198266
 20
5318.3865509108
 30
0.0
 40
15.00000000000183
100
AcDbArc
 50
170.6630247558
 51
175.1219325249
  0
SPLINE
  5
89
330
1F
100
AcDbEntity
  8
0
  6
Continuous
 62
     7
370
    25
100
AcDbSpline
210
0.0
220
0.0
230
1.0
 70
     8
 71
     3
 72
    11
 73
     7
 74
     0
 42
0.000000001
 43
0.00000001
 40
0.0
 40
0.0
 40
0.0
 40
0.0
 40
0.1057603019577611
 40
0.5503450490505669
 40
0.935987771835548
 40
1.0
 40
1.0
 40
1.0
 40
1.0
 10
6299.517174524891
 20
5245.571823271155
 30
0.0
 10
6299.517050282067
 20
5246.254506475181
 30
0.0
 10
6299.51640375949
 20
5249.806986133909
 30
0.0
 10
6299.511773761873
 20
5255.845772650173
 30
0.0
 10
6299.50209688584
 20
5261.613720969304
 30
0.0
 10
6299.478879234492
 20
5264.508673328977
 30
0.0
 10
6299.475574003241
 20
5264.920794557892
 30
0.0
  0
SPLINE
  5
8A
330
1F
100
AcDbEntity
  8
0
  6
Continuous
 62
     7
370
    25
100
AcDbSpline
210
0.0
220
0.0
230
1.0
 70
     8
 71
     3
 72
    10
 73
     6
 74
     0
 42
0.000000001
 43
0.00000001
 40
0.0
 40
0.0
 40
0.0
 40
0.0
 40
0.3646030269068323
 40
0.7699156873230709
 40
1.0
 40
1.0
 40
1.0
 40
1.0
 10
6248.560354633775
 20
5264.921002754812
 30
0.0
 10
6248.548550943914
 20
5262.577298262038
 30
0.0
 10
6248.523625627004
 20
5257.628203706393
 30
0.0
 10
6248.522446582186
 20
5251.191658311528
 30
0.0
 10
6248.520953369897
 20
5247.100584702987
 30
0.0
 10
6248.520412661115
 20
5245.6191614366
 30
0.0
  0
SPLINE
  5
8B
330
1F
100
AcDbEntity
  8
0
  6
Continuous
 62
     7
370
    18
100
AcDbSpline
210
0.0
220
0.0
230
1.0
 70
     8
 71
     3
 72
    15
 73
    11
 74
     0
 42
0.000000001
 43
0.00000001
 40
0.0
 40
0.0
 40
0.0
 40
0.0
 40
0.0082948303950599
 40
0.0704428785762999
 40
0.3468081057169386
 40
0.5041720705774524
 40
0.6616739970184395
 40
0.8195996167493997
 40
0.9776729926347951
 40
0.9999999999999999
 40
0.9999999999999999
 40
0.9999999999999999
 40
0.9999999999999999
 10
6274.0187553361
 20
5334.326423879585
 30
0.0
 10
6274.011265966012
 20
5334.340739941635
 30
0.0
 10
6273.947663365035
 20
5334.46231742696
 30
0.0
 10
6273.630543810387
 20
5335.058772300164
 30
0.0
 10
6273.152321450957
 20
5335.898412162313
 30
0.0
 10
6272.549303253292
 20
5336.87857812371
 30
0.0
 10
6272.049408512416
 20
5337.650307962565
 30
0.0
 10
6271.532293209158
 20
5338.410701833467
 30
0.0
 10
6271.152139350243
 20
5338.94510500047
 30
0.0
 10
6270.946215681069
 20
5339.226973708385
 30
0.0
 10
6270.920729819036
 20
5339.261858804549
 30
0.0
  0
SPLINE
  5
8C
330
1F
100
AcDbEntity
  8
0
  6
Continuous
 62
     7
370
    18
100
AcDbSpline
210
0.0
220
0.0
230
1.0
 70
     8
 71
     3
 72
    14
 73
    10
 74
     0
 42
0.000000001
 43
0.00000001
 40
0.0
 40
0.0
 40
0.0
 40
0.0
 40
0.0880349751846699
 40
0.1953287358522676
 40
0.3148460854945593
 40
0.438197539509542
 40
0.6760187621011553
 40
0.855067785213322
 40
1.0
 40
1.0
 40
1.0
 40
1.0
 10
6272.955273092498
 20
5346.914910527123
 30
0.0
 10
6272.708978265066
 20
5346.812585998177
 30
0.0
 10
6272.162508442269
 20
5346.585552130743
 30
0.0
 10
6271.505052320908
 20
5345.973531410304
 30
0.0
 10
6270.934524971395
 20
5345.17624258168
 30
0.0
 10
6270.357149334869
 20
5343.927167558437
 30
0.0
 10
6270.031221355315
 20
5342.334762779436
 30
0.0
 10
6270.178655389016
 20
5340.555541378453
 30
0.0
 10
6270.691368750243
 20
5339.661711441731
 30
0.0
 10
6270.920729819036
 20
5339.261858804549
 30
0.0
  0
SPLINE
  5
8D
330
1F
100
AcDbEntity
  8
0
  6
Continuous
 62
     7
370
    18
100
AcDbSpline
210
0.0
220
0.0
230
1.0
 70
     8
 71
     3
 72
    24
 73
    20
 74
     0
 42
0.000000001
 43
0.00000001
 40
0.0
 40
0.0
 40
0.0
 40
0.0
 40
0.0403772426042637
 40
0.1037695305499054
 40
0.1689758152983801
 40
0.2478110897272011
 40
0.3289008871278234
 40
0.4113929178337151
 40
0.4957326641031207
 40
0.5753231589720462
 40
0.6569044568669973
 40
0.7120714985180373
 40
0.7686253669106362
 40
0.8061548656454696
 40
0.8444614808834181
 40
0.8828153636832712
 40
0.9223244911916314
 40
0.9606126720160035
 40
1.0
 40
1.0
 40
1.0
 40
1.0
 10
6277.147387948636
 20
5339.303620552348
 30
0.0
 10
6277.236298834649
 20
5339.434082740358
 30
0.0
 10
6277.464799849262
 20
5339.769370618656
 30
0.0
 10
6277.736034721251
 20
5340.372126079873
 30
0.0
 10
6277.950544706054
 20
5341.144959102758
 30
0.0
 10
6278.041199510709
 20
5342.001790211752
 30
0.0
 10
6277.993166404924
 20
5342.910721114378
 30
0.0
 10
6277.811525188057
 20
5343.803100101856
 30
0.0
 10
6277.510314550508
 20
5344.63414375001
 30
0.0
 10
6277.095049893092
 20
5345.39025933169
 30
0.0
 10
6276.620713503945
 20
5345.978163016824
 30
0.0
 10
6276.10284449196
 20
5346.422588754457
 30
0.0
 10
6275.638016212452
 20
5346.702524372392
 30
0.0
 10
6275.180485204341
 20
5346.891963327068
 30
0.0
 10
6274.757997123005
 20
5347.008941363238
 30
0.0
 10
6274.307372645476
 20
5347.074809077068
 30
0.0
 10
6273.848215694012
 20
5347.081576322622
 30
0.0
 10
6273.388592576869
 20
5347.032913098466
 30
0.0
 10
6273.101069120686
 20
5346.954614041132
 30
0.0
 10
6272.955273092498
 20
5346.914910527123
 30
0.0
  0
SPLINE
  5
8E
330
1F
100
AcDbEntity
  8
0
  6
Continuous
 62
     7
370
    18
100
AcDbSpline
210
0.0
220
0.0
230
1.0
 70
     8
 71
     3
 72
    15
 73
    11
 74
     0
 42
0.000000001
 43
0.00000001
 40
0.0
 40
0.0
 40
0.0
 40
0.0
 40
0.0324094770669567
 40
0.1881996392394242
 40
0.3441363632431341
 40
0.5004998013113557
 40
0.6570017042842402
 40
0.930422495242903
 40
0.9917785163771962
 40
1.0
 40
1.0
 40
1.0
 40
1.0
 10
6277.147387948636
 20
5339.303620552348
 30
0.0
 10
6277.110028524271
 20
5339.252563277289
 30
0.0
 10
6276.893084876179
 20
5338.956077137549
 30
0.0
 10
6276.503077343441
 20
5338.407534410536
 30
0.0
 10
6275.987317209879
 20
5337.64912248853
 30
0.0
 10
6275.487232826377
 20
5336.877065520143
 30
0.0
 10
6274.88399042228
 20
5335.896381213596
 30
0.0
 10
6274.406047328318
 20
5335.057067398398
 30
0.0
 10
6274.089626407794
 20
5334.461895192034
 30
0.0
 10
6274.026244705402
 20
5334.34073994204
 30
0.0
 10
6274.0187553361
 20
5334.326423879585
 30
0.0
  0
LINE
  5
8F
330
1F
100
AcDbEntity
  8
0
  6
Continuous
 62
     7
370
    25
100
AcDbLine
 10
6258.0560480793
 20
5334.6392199549
 30
0.0
 11
6258.0930408012
 21
5335.5040921485
 31
0.0
  0
SPLINE
  5
90
330
1F
100
AcDbEntity
  8
0
  6
Continuous
 62
     7
370
    18
100
AcDbSpline
210
0.0
220
0.0
230
1.0
 70
     8
 71
     3
 72
    10
 73
     6
 74
     0
 42
0.000000001
 43
0.00000001
 40
0.0
 40
0.0
 40
0.0
 40
0.0
 40
0.1109904286550134
 40
0.5543036161072482
 40
1.0
 40
1.0
 40
1.0
 40
1.0
 10
6271.137516008623
 20
5349.110081874651
 30
0.0
 10
6271.224190470072
 20
5349.125857830821
 30
0.0
 10
6271.657056330558
 20
5349.20464543132
 30
0.0
 10
6272.449458889666
 20
5349.279491696738
 30
0.0
 10
6273.154826039402
 20
5349.295853993098
 30
0.0
 10
6273.508455064429
 20
5349.304057072744
 30
0.0
  0
SPLINE
  5
91
330
1F
100
AcDbEntity
  8
0
  6
Continuous
 62
     7
370
    18
100
AcDbSpline
210
0.0
220
0.0
230
1.0
 70
     8
 71
     3
 72
    18
 73
    14
 74
     0
 42
0.000000001
 43
0.00000001
 40
0.0
 40
0.0
 40
0.0
 40
0.0
 40
0.0109232628141643
 40
0.1033115504802364
 40
0.1957097932191146
 40
0.3015558686814179
 40
0.4095907119018876
 40
0.5411589531105035
 40
0.6764969753846534
 40
0.842696727993485
 40
0.9602963433594028
 40
0.9909160169467195
 40
1.0
 40
1.0
 40
1.0
 40
1.0
 10
6270.920729819036
 20
5339.261858804549
 30
0.0
 10
6270.845552874935
 20
5339.258062593744
 30
0.0
 10
6270.13453394337
 20
5339.222158264533
 30
0.0
 10
6268.808934615458
 20
5339.112711801013
 30
0.0
 10
6266.929097610922
 20
5338.858375770908
 30
0.0
 10
6265.081008394151
 20
5338.49291449024
 30
0.0
 10
6263.196715960371
 20
5337.979227353892
 30
0.0
 10
6261.431471357775
 20
5337.318410681222
 30
0.0
 10
6259.799696064229
 20
5336.450621721865
 30
0.0
 10
6258.698536342758
 20
5335.555303969101
 30
0.0
 10
6258.231198099535
 20
5334.853141005477
 30
0.0
 10
6258.090227996637
 20
5334.656534512364
 30
0.0
 10
6258.062412186964
 20
5334.642443827714
 30
0.0
 10
6258.056048079347
 20
5334.639219954869
 30
0.0
  0
SPLINE
  5
92
330
1F
100
AcDbEntity
  8
0
  6
Continuous
 62
     7
370
    18
100
AcDbSpline
210
0.0
220
0.0
230
1.0
 70
     8
 71
     3
 72
    13
 73
     9
 74
     0
 42
0.000000001
 43
0.00000001
 40
0.0
 40
0.0
 40
0.0
 40
0.0
 40
0.2003972929923798
 40
0.4032674464439019
 40
0.5497845001941378
 40
0.6973209906445024
 40
0.8480966279868456
 40
1.0
 40
1.0
 40
1.0
 40
1.0
 10
6280.048464450302
 20
5348.174109536018
 30
0.0
 10
6280.422428737576
 20
5348.004991462642
 30
0.0
 10
6281.174971952797
 20
5347.66466843442
 30
0.0
 10
6282.167577704697
 20
5347.082655491151
 30
0.0
 10
6283.033852401555
 20
5346.497161073766
 30
0.0
 10
6283.779029033315
 20
5345.924908970586
 30
0.0
 10
6284.501225065261
 20
5345.305241563008
 30
0.0
 10
6284.950685957058
 20
5344.855971744895
 30
0.0
 10
6285.176253713467
 20
5344.630499881285
 30
0.0
  0
SPLINE
  5
93
330
1F
100
AcDbEntity
  8
0
  6
Continuous
 62
     7
370
    18
100
AcDbSpline
210
0.0
220
0.0
230
1.0
 70
     8
 71
     3
 72
    12
 73
     8
 74
     0
 42
0.000000001
 43
0.00000001
 40
0.0
 40
0.0
 40
0.0
 40
0.0
 40
0.0582209388732431
 40
0.2902742991322634
 40
0.5281051839148798
 40
0.7605405381736823
 40
1.0
 40
1.0
 40
1.0
 40
1.0
 10
6285.176253713467
 20
5344.630499881285
 30
0.0
 10
6285.270877213604
 20
5344.530991048458
 30
0.0
 10
6285.742645115583
 20
5344.034866161683
 30
0.0
 10
6286.528985107857
 20
5343.083074034411
 30
0.0
 10
6287.417751886078
 20
5341.778273670004
 30
0.0
 10
6288.160513019036
 20
5340.458133379039
 30
0.0
 10
6288.522139278464
 20
5339.66612377323
 30
0.0
 10
6288.705643793694
 20
5339.264224478083
 30
0.0
  0
SPLINE
  5
94
330
1F
100
AcDbEntity
  8
0
  6
Continuous
 62
     7
370
    18
100
AcDbSpline
210
0.0
220
0.0
230
1.0
 70
     8
 71
     3
 72
    18
 73
    14
 74
     0
 42
0.000000001
 43
0.00000001
 40
0.0
 40
0.0
 40
0.0
 40
0.0
 40
0.1188868540141408
 40
0.2393616160453394
 40
0.325551822400839
 40
0.4123403968155988
 40
0.5010161826375394
 40
0.5903440801569095
 40
0.6765362987975534
 40
0.7633269294269608
 40
0.8520049110969558
 40
0.9413350523007162
 40
0.9999999999999999
 40
0.9999999999999999
 40
0.9999999999999999
 40
0.9999999999999999
 10
6288.705643793694
 20
5339.264224478083
 30
0.0
 10
6288.441826923013
 20
5339.267227205622
 30
0.0
 10
6287.910669521046
 20
5339.273272766525
 30
0.0
 10
6286.974035275943
 20
5339.280000502544
 30
0.0
 10
6286.02164009948
 20
5339.285273328064
 30
0.0
 10
6285.086495048985
 20
5339.289346556753
 30
0.0
 10
6284.061578006412
 20
5339.292881598231
 30
0.0
 10
6282.966092261939
 20
5339.295852491348
 30
0.0
 10
6281.815194097024
 20
5339.298301800201
 30
0.0
 10
6280.612885752703
 20
5339.30029477261
 30
0.0
 10
6279.348613970111
 20
5339.301881083627
 30
0.0
 10
6278.185114958065
 20
5339.302963277006
 30
0.0
 10
6277.441969338126
 20
5339.303433970441
 30
0.0
 10
6277.147387948636
 20
5339.303620552347
 30
0.0
  0
SPLINE
  5
95
330
1F
100
AcDbEntity
  8
0
  6
Continuous
 62
     7
370
    25
100
AcDbSpline
210
0.0
220
0.0
230
1.0
 70
     8
 71
     3
 72
     9
 73
     5
 74
     0
 42
0.000000001
 43
0.00000001
 40
0.0
 40
0.0
 40
0.0
 40
0.0
 40
0.498135467646052
 40
1.0
 40
1.0
 40
1.0
 40
1.0
 10
6273.508455064429
 20
5349.304057072743
 30
0.0
 10
6273.677919070969
 20
5349.304139838316
 30
0.0
 10
6274.018115699294
 20
5349.304305989048
 30
0.0
 10
6274.358319424378
 20
5349.304140250862
 30
0.0
 10
6274.529055607772
 20
5349.304057072743
 30
0.0
  0
SPLINE
  5
96
330
1F
100
AcDbEntity
  8
0
  6
Continuous
 62
     7
370
    18
100
AcDbSpline
210
0.0
220
0.0
230
1.0
 70
     8
 71
     3
 72
    12
 73
     8
 74
     0
 42
0.000000001
 43
0.00000001
 40
0.0
 40
0.0
 40
0.0
 40
0.0
 40
0.0038794490758759
 40
0.0774911444329761
 40
0.3744324454593974
 40
0.682761480882976
 40
1.0
 40
1.0
 40
1.0
 40
1.0
 10
6274.529055607772
 20
5349.304057072743
 30
0.0
 10
6274.535507762913
 20
5349.304092584745
 30
0.0
 10
6274.664388146733
 20
5349.304801929177
 30
0.0
 10
6275.296565262571
 20
5349.298838002463
 30
0.0
 10
6276.514195849024
 20
5349.197598184141
 30
0.0
 10
6278.255900040154
 20
5348.852602019879
 30
0.0
 10
6279.44529642372
 20
5348.402410940544
 30
0.0
 10
6280.048464450302
 20
5348.174109536018
 30
0.0
  0
SPLINE
  5
97
330
1F
100
AcDbEntity
  8
0
  6
Continuous
 62
     7
370
    18
100
AcDbSpline
210
0.0
220
0.0
230
1.0
 70
     8
 71
     3
 72
    10
 73
     6
 74
     0
 42
0.000000001
 43
0.00000001
 40
0.0
 40
0.0
 40
0.0
 40
0.0
 40
0.4901870873466966
 40
0.9814565259577398
 40
1.0
 40
1.0
 40
1.0
 40
1.0
 10
6272.910073951203
 20
5331.96045210757
 30
0.0
 10
6273.078539306355
 20
5332.352865512135
 30
0.0
 10
6273.41584199441
 20
5333.138558784615
 30
0.0
 10
6273.805776522147
 20
5333.918305107499
 30
0.0
 10
6274.011280519466
 20
5334.312100328196
 30
0.0
 10
6274.0187553361
 20
5334.326423879585
 30
0.0
  0
SPLINE
  5
98
330
1F
100
AcDbEntity
  8
0
  6
Continuous
 62
     7
370
    18
100
AcDbSpline
210
0.0
220
0.0
230
1.0
 70
     8
 71
     3
 72
    12
 73
     8
 74
     0
 42
0.000000001
 43
0.00000001
 40
0.0
 40
0.0
 40
0.0
 40
0.0
 40
0.20117237479343
 40
0.4060172253077986
 40
0.6572647055057826
 40
0.9158057761874546
 40
1.0
 40
1.0
 40
1.0
 40
1.0
 10
6263.325720356168
 20
5331.704298843525
 30
0.0
 10
6263.873037395931
 20
5331.735445197331
 30
0.0
 10
6264.977662949397
 20
5331.798306493091
 30
0.0
 10
6266.996463482043
 20
5331.871480061357
 30
0.0
 10
6269.346764842547
 20
5331.927572957085
 30
0.0
 10
6271.408585982454
 20
5331.953091500339
 30
0.0
 10
6272.613967430872
 20
5331.95900053164
 30
0.0
 10
6272.910073951203
 20
5331.96045210757
 30
0.0
  0
SPLINE
  5
99
330
1F
100
AcDbEntity
  8
0
  6
Continuous
 62
     7
370
    18
100
AcDbSpline
210
0.0
220
0.0
230
1.0
 70
     8
 71
     3
 72
    11
 73
     7
 74
     0
 42
0.000000001
 43
0.00000001
 40
0.0
 40
0.0
 40
0.0
 40
0.0
 40
0.2467931488396548
 40
0.4949238393974725
 40
0.7468729128425501
 40
1.0
 40
1.0
 40
1.0
 40
1.0
 10
6261.261664986669
 20
5331.859277552977
 30
0.0
 10
6261.415066251906
 20
5331.823395385924
 30
0.0
 10
6261.722700169283
 20
5331.751436581685
 30
0.0
 10
6262.225964174666
 20
5331.698033532637
 30
0.0
 10
6262.757602963464
 20
5331.677831382946
 30
0.0
 10
6263.136053665602
 20
5331.695462649246
 30
0.0
 10
6263.325720356168
 20
5331.704298843525
 30
0.0
  0
SPLINE
  5
9A
330
1F
100
AcDbEntity
  8
0
  6
Continuous
 62
     7
370
    18
100
AcDbSpline
210
0.0
220
0.0
230
1.0
 70
     8
 71
     3
 72
    12
 73
     8
 74
     0
 42
0.000000001
 43
0.00000001
 40
0.0
 40
0.0
 40
0.0
 40
0.0
 40
0.0670997011379276
 40
0.3273456671178285
 40
0.587381838694328
 40
0.853228186088956
 40
1.0
 40
1.0
 40
1.0
 40
1.0
 10
6258.056048079347
 20
5334.5625557824
 30
0.0
 10
6258.078401633855
 20
5334.528550330601
 30
0.0
 10
6258.187453374607
 20
5334.362654847972
 30
0.0
 10
6258.53795802731
 20
5333.559361852655
 30
0.0
 10
6259.322865744044
 20
5332.791288546904
 30
0.0
 10
6260.261696396683
 20
5332.177532414653
 30
0.0
 10
6260.999294886545
 20
5331.942780735736
 30
0.0
 10
6261.261664986669
 20
5331.859277552977
 30
0.0
  0
LINE
  5
9B
330
1F
100
AcDbEntity
  8
0
  6
Continuous
 62
     7
370
    25
100
AcDbLine
 10
6258.0560480793
 20
5334.6392199549
 30
0.0
 11
6258.0560480793
 21
5334.5625557824
 31
0.0
  0
LINE
  5
9C
330
1F
100
AcDbEntity
  8
0
  6
Continuous
 62
     7
370
    25
100
AcDbLine
 10
6289.9814625929
 20
5334.9486144727
 30
0.0
 11
6289.9747202421
 21
5334.9613139892
 31
0.0
  0
LINE
  5
9D
330
1F
100
AcDbEntity
  8
0
  6
Continuous
 62
     7
370
    25
100
AcDbLine
 10
6289.9814625929
 20
5334.9486144727
 30
0.0
 11
6289.9814625929
 21
5334.5625557824
 31
0.0
  0
SPLINE
  5
9E
330
1F
100
AcDbEntity
  8
0
  6
Continuous
 62
     7
370
    18
100
AcDbSpline
210
0.0
220
0.0
230
1.0
 70
     8
 71
     3
 72
    12
 73
     8
 74
     0
 42
0.000000001
 43
0.00000001
 40
0.0
 40
0.0
 40
0.0
 40
0.0
 40
0.2155134481816608
 40
0.4357255380060994
 40
0.7731190794095318
 40
0.9393752827041448
 40
1.0
 40
1.0
 40
1.0
 40
1.0
 10
6286.775845685533
 20
5331.859277552978
 30
0.0
 10
6287.155064957698
 20
5331.988298243342
 30
0.0
 10
6287.921771271299
 20
5332.249152543608
 30
0.0
 10
6288.941882478998
 20
5332.978060028589
 30
0.0
 10
6289.597045595005
 20
5333.700560715094
 30
0.0
 10
6289.886535541871
 20
5334.433157493698
 30
0.0
 10
6289.961445852759
 20
5334.53527028383
 30
0.0
 10
6289.981462592854
 20
5334.5625557824
 30
0.0
  0
SPLINE
  5
9F
330
1F
100
AcDbEntity
  8
0
  6
Continuous
 62
     7
370
    18
100
AcDbSpline
210
0.0
220
0.0
230
1.0
 70
     8
 71
     3
 72
    11
 73
     7
 74
     0
 42
0.000000001
 43
0.00000001
 40
0.0
 40
0.0
 40
0.0
 40
0.0
 40
0.2470504356598415
 40
0.4951790707133832
 40
0.7469060824588608
 40
0.9999999999999999
 40
0.9999999999999999
 40
0.9999999999999999
 40
0.9999999999999999
 10
6284.711790316052
 20
5331.704298843523
 30
0.0
 10
6284.896953518926
 20
5331.695600675744
 30
0.0
 10
6285.268088030326
 20
5331.67816637887
 30
0.0
 10
6285.796142669276
 20
5331.696976356849
 30
0.0
 10
6286.304504186471
 20
5331.749412661025
 30
0.0
 10
6286.618448496393
 20
5331.822589874908
 30
0.0
 10
6286.775845685533
 20
5331.859277552978
 30
0.0
  0
SPLINE
  5
A0
330
1F
100
AcDbEntity
  8
0
  6
Continuous
 62
     7
370
    18
100
AcDbSpline
210
0.0
220
0.0
230
1.0
 70
     8
 71
     3
 72
    11
 73
     7
 74
     0
 42
0.000000001
 43
0.00000001
 40
0.0
 40
0.0
 40
0.0
 40
0.0
 40
0.2511926915008584
 40
0.5096713206697122
 40
0.7515954383139205
 40
1.0
 40
1.0
 40
1.0
 40
1.0
 10
6275.127436720997
 20
5331.96045210757
 30
0.0
 10
6276.01010529379
 20
5331.954621378771
 30
0.0
 10
6277.801044570411
 20
5331.94279079871
 30
0.0
 10
6280.32416034088
 20
5331.891708515083
 30
0.0
 10
6282.686159341069
 20
5331.816991209309
 30
0.0
 10
6284.030656793771
 20
5331.742192491966
 30
0.0
 10
6284.711790316052
 20
5331.704298843523
 30
0.0
  0
SPLINE
  5
A1
330
1F
100
AcDbEntity
  8
0
  6
Continuous
 62
     7
370
    18
100
AcDbSpline
210
0.0
220
0.0
230
1.0
 70
     8
 71
     3
 72
    10
 73
     6
 74
     0
 42
0.000000001
 43
0.00000001
 40
0.0
 40
0.0
 40
0.0
 40
0.0
 40
0.0185434746695025
 40
0.5087625420250527
 40
0.9999999999999999
 40
0.9999999999999999
 40
0.9999999999999999
 40
0.9999999999999999
 10
6274.0187553361
 20
5334.326423879585
 30
0.0
 10
6274.026230151875
 20
5334.312100327684
 30
0.0
 10
6274.231310717571
 20
5333.919116444909
 30
0.0
 10
6274.621276119093
 20
5333.139387464574
 30
0.0
 10
6274.95859984774
 20
5332.353702310569
 30
0.0
 10
6275.127436720997
 20
5331.96045210757
 30
0.0
  0
SPLINE
  5
A2
330
1F
100
AcDbEntity
  8
0
  6
Continuous
 62
     7
370
    18
100
AcDbSpline
210
0.0
220
0.0
230
1.0
 70
     8
 71
     3
 72
    12
 73
     8
 74
     0
 42
0.000000001
 43
0.00000001
 40
0.0
 40
0.0
 40
0.0
 40
0.0
 40
0.0548748889813547
 40
0.1675683913534344
 40
0.2820175841124464
 40
0.6398417266463541
 40
1.0
 40
1.0
 40
1.0
 40
1.0
 10
6289.974720242103
 20
5334.961313989156
 30
0.0
 10
6289.962430132532
 20
5335.002919784195
 30
0.0
 10
6289.924900509627
 20
5335.129969082608
 30
0.0
 10
6289.854313632452
 20
5335.53544255456
 30
0.0
 10
6289.681603960686
 20
5336.37610911211
 30
0.0
 10
6289.358552343342
 20
5337.650738271618
 30
0.0
 10
6288.92375115041
 20
5338.725231365218
 30
0.0
 10
6288.705643793694
 20
5339.264224478083
 30
0.0
  0
LINE
  5
A3
330
1F
100
AcDbEntity
  8
0
  6
Continuous
 62
     7
370
    18
100
AcDbLine
 10
6262.821159992
 20
5331.528480031
 30
0.0
 11
6262.2517478284
 21
5331.014984262
 31
0.0
  0
SPLINE
  5
A4
330
1F
100
AcDbEntity
  8
0
  6
Continuous
 62
     7
370
    18
100
AcDbSpline
210
0.0
220
0.0
230
1.0
 70
     8
 71
     3
 72
    12
 73
     8
 74
     0
 42
0.000000001
 43
0.00000001
 40
0.0
 40
0.0
 40
0.0
 40
0.0
 40
0.0228449382885965
 40
0.1772298887705187
 40
0.3317936347653776
 40
0.6649873698169103
 40
0.9999999999999999
 40
0.9999999999999999
 40
0.9999999999999999
 40
0.9999999999999999
 10
6263.325720356168
 20
5331.704298843525
 30
0.0
 10
6263.319936682669
 20
5331.703068151135
 30
0.0
 10
6263.275067232905
 20
5331.693520501126
 30
0.0
 10
6263.196329768424
 20
5331.675330986164
 30
0.0
 10
6263.061089121848
 20
5331.639149836384
 30
0.0
 10
6262.91903603825
 20
5331.590999141183
 30
0.0
 10
6262.853844492442
 20
5331.549357518
 30
0.0
 10
6262.821159992021
 20
5331.528480030993
 30
0.0
  0
LINE
  5
A5
330
1F
100
AcDbEntity
  8
0
  6
Continuous
 62
     7
370
    25
100
AcDbLine
 10
6275.127436721
 20
5331.9604521076
 30
0.0
 11
6272.9100739512
 21
5331.9604521076
 31
0.0
  0
SPLINE
  5
A6
330
1F
100
AcDbEntity
  8
0
  6
Continuous
 62
     7
370
    18
100
AcDbSpline
210
0.0
220
0.0
230
1.0
 70
     8
 71
     3
 72
    12
 73
     8
 74
     0
 42
0.000000001
 43
0.00000001
 40
0.0
 40
0.0
 40
0.0
 40
0.0
 40
0.2950743028023902
 40
0.5914108835373646
 40
0.7810991940340416
 40
0.9711198578588217
 40
1.0
 40
1.0
 40
1.0
 40
1.0
 10
6285.21635068018
 20
5331.528480030993
 30
0.0
 10
6285.188155671125
 20
5331.546896330472
 30
0.0
 10
6285.131645039535
 20
5331.583807711243
 30
0.0
 10
6285.005207907752
 20
5331.62995947018
 30
0.0
 10
6284.869722685101
 20
5331.668444265446
 30
0.0
 10
6284.774442331867
 20
5331.690945245387
 30
0.0
 10
6284.719092730285
 20
5331.702742413075
 30
0.0
 10
6284.711790316052
 20
5331.704298843523
 30
0.0
  0
LINE
  5
A7
330
1F
100
AcDbEntity
  8
0
  6
Continuous
 62
     7
370
    25
100
AcDbLine
 10
6285.7857628438
 20
5331.014984262
 30
0.0
 11
6285.2163506802
 21
5331.528480031
 31
0.0
  0
SPLINE
  5
A8
330
1F
100
AcDbEntity
  8
0
  6
Continuous
 62
     7
370
    25
100
AcDbSpline
210
0.0
220
0.0
230
1.0
 70
     8
 71
     3
 72
    33
 73
    29
 74
     0
 42
0.000000001
 43
0.00000001
 40
0.0
 40
0.0
 40
0.0
 40
0.0
 40
0.045998038488592
 40
0.0927519618132944
 40
0.1532019789697706
 40
0.1842171285164449
 40
0.2154600569919647
 40
0.2759433372411637
 40
0.3069757104922754
 40
0.3382361230029096
 40
0.3684109107799772
 40
0.3987952418236976
 40
0.4298405426905042
 40
0.4611142769784414
 40
0.5216116036044027
 40
0.5526520533556928
 40
0.5839208506127483
 40
0.6752849335773189
 40
0.706549221252259
 40
0.7367219658805374
 40
0.7671041723432637
 40
0.7981470571759596
 40
0.829418282281726
 40
0.8595910864016879
 40
0.88997354077342
 40
0.9210174350424379
 40
0.952289989840512
 40
1.0
 40
1.0
 40
1.0
 40
1.0
 10
6285.785762843772
 20
5331.01498426198
 30
0.0
 10
6285.668514184422
 20
5331.063298612929
 30
0.0
 10
6285.432090120873
 20
5331.16072126358
 30
0.0
 10
6284.78270047371
 20
5331.302715922106
 30
0.0
 10
6284.008198376633
 20
5331.41505849557
 30
0.0
 10
6283.179801011864
 20
5331.501339608267
 30
0.0
 10
6282.264157132817
 20
5331.578865234266
 30
0.0
 10
6281.226282719749
 20
5331.643608326663
 30
0.0
 10
6280.092354516364
 20
5331.695818201114
 30
0.0
 10
6279.19412191538
 20
5331.728946361131
 30
0.0
 10
6278.265695914261
 20
5331.755895006442
 30
0.0
 10
6277.309835972598
 20
5331.777067081927
 30
0.0
 10
6276.318808315902
 20
5331.792741143328
 30
0.0
 10
6274.9842043848
 20
5331.805897032907
 30
0.0
 10
6273.62882803988
 20
5331.807984283972
 30
0.0
 10
6272.286036164824
 20
5331.799052424515
 30
0.0
 10
6270.627112717545
 20
5331.778454837012
 30
0.0
 10
6269.022211163938
 20
5331.738708661292
 30
0.0
 10
6267.569548827631
 20
5331.679529326905
 30
0.0
 10
6266.74161533223
 20
5331.637803339302
 30
0.0
 10
6265.96654425738
 20
5331.59000644019
 30
0.0
 10
6265.239647508161
 20
5331.535174260359
 30
0.0
 10
6264.57787773401
 20
5331.473836479116
 30
0.0
 10
6263.987925468571
 20
5331.406389440848
 30
0.0
 10
6263.468771389262
 20
5331.332721327897
 30
0.0
 10
6263.020741220758
 20
5331.251515339085
 30
0.0
 10
6262.574967293454
 20
5331.148058708107
 30
0.0
 10
6262.373466121279
 20
5331.065097563181
 30
0.0
 10
6262.251747828429
 20
5331.01498426198
 30
0.0
  0
LINE
  5
A9
330
1F
100
AcDbEntity
  8
0
  6
Continuous
 62
     7
370
    25
100
AcDbLine
 10
6262.2517478284
 20
5331.014984262
 30
0.0
 11
6262.0188997469
 21
5330.7626071672
 31
0.0
  0
LINE
  5
AA
330
1F
100
AcDbEntity
  8
0
  6
Continuous
 62
     7
370
    25
100
AcDbLine
 10
6286.0186109253
 20
5330.7626071672
 30
0.0
 11
6285.7857628438
 21
5331.014984262
 31
0.0
  0
LWPOLYLINE
  5
AB
330
1F
100
AcDbEntity
  8
0
  6
Continuous
 62
     7
370
    25
100
AcDbPolyline
 90
       26
 70
   128
 43
0.0
 10
6262.0647691532
 20
5324.4518236185
 10
6262.0260654119
 20
5324.5068249932
 10
6262.0844925917
 20
5324.6526483622
 10
6262.3752066208
 20
5324.7963438819
 10
6262.8925490813
 20
5324.9351146826
 10
6263.6264504907
 20
5325.0662597484
 10
6264.5626262928
 20
5325.1872264899
 10
6265.6828548906
 20
5325.295660427
 10
6266.9653323086
 20
5325.3894510164
 10
6268.3850965827
 20
5325.4667727311
 10
6269.9145136162
 20
5325.5261205918
 10
6271.5238150463
 20
5325.5663394598
 10
6273.1816776512
 20
5325.5866465208
 10
6274.855833021
 20
5325.5866465208
 10
6276.5136956259
 20
5325.5663394598
 10
6278.122997056
 20
5325.5261205918
 10
6279.6524140895
 20
5325.4667727311
 10
6281.0721783636
 20
5325.3894510164
 10
6282.3546557816
 20
5325.295660427
 10
6283.4748843794
 20
5325.1872264899
 10
6284.4110601815
 20
5325.0662597484
 10
6285.1449615909
 20
5324.9351146826
 10
6285.6623040514
 20
5324.7963438819
 10
6285.9530180805
 20
5324.6526483622
 10
6286.0114452603
 20
5324.5068249932
 10
6285.972741519
 20
5324.4518236185
  0
LWPOLYLINE
  5
AC
330
1F
100
AcDbEntity
  8
0
  6
Continuous
 62
     7
370
    25
100
AcDbPolyline
 90
       44
 70
   128
 43
0.0
 10
6274.0187553361
 20
5322.5884174236
 10
6275.6203681812
 20
5322.598634077
 10
6277.1878454291
 20
5322.6290662869
 10
6278.6877790237
 20
5322.6790654436
 10
6280.0882004846
 20
5322.7475659019
 10
6281.3592622595
 20
5322.8331076934
 10
6282.4738738737
 20
5322.9338676434
 10
6283.4082793155
 20
5323.0476982285
 10
6284.1425633554
 20
5323.1721733474
 10
6284.6610760037
 20
5323.3046400289
 10
6284.9527660637
 20
5323.4422749759
 10
6285.0114166682
 20
5323.5821447383
 10
6284.8357777812
 20
5323.7212682351
 10
6284.4295928408
 20
5323.8566802903
 10
6283.8015189738
 20
5323.9854948312
 10
6282.9649424842
 20
5324.1049663994
 10
6281.9376935474
 20
5324.2125486659
 10
6280.7416661912
 20
5324.3059487015
 10
6279.402351662
 20
5324.3831758465
 10
6277.9482951239
 20
5324.4425841385
 10
6276.4104872675
 20
5324.4829073928
 10
6274.8217037974
 20
5324.5032861893
 10
6273.2158068748
 20
5324.5032861893
 10
6271.6270234047
 20
5324.4829073928
 10
6270.0892155483
 20
5324.4425841385
 10
6268.6351590102
 20
5324.3831758465
 10
6267.295844481
 20
5324.3059487015
 10
6266.0998171248
 20
5324.2125486659
 10
6265.072568188
 20
5324.1049663994
 10
6264.2359916984
 20
5323.9854948312
 10
6263.6079178314
 20
5323.8566802903
 10
6263.201732891
 20
5323.7212682351
 10
6263.026094004
 20
5323.5821447383
 10
6263.0847446085
 20
5323.4422749759
 10
6263.3764346685
 20
5323.3046400289
 10
6263.8949473168
 20
5323.1721733474
 10
6264.6292313567
 20
5323.0476982285
 10
6265.5636367985
 20
5322.9338676434
 10
6266.6782484127
 20
5322.8331076934
 10
6267.9493101876
 20
5322.7475659019
 10
6269.3497316485
 20
5322.6790654436
 10
6270.8496652431
 20
5322.6290662869
 10
6272.417142491
 20
5322.598634077
 10
6274.0187553361
 20
5322.5884174236
  0
LWPOLYLINE
  5
AD
330
1F
100
AcDbEntity
  8
0
  6
Continuous
 62
     7
370
    25
100
AcDbPolyline
 90
       42
 70
   128
 43
0.0
 10
6274.0187553361
 20
5324.4186880213
 10
6272.4922624939
 20
5324.4084737376
 10
6271.0015493501
 20
5324.3780703007
 10
6269.5815569574
 20
5324.3281903412
 10
6268.2655687339
 20
5324.2600030034
 10
6267.0844303282
 20
5324.1751065404
 10
6266.0658266234
 20
5324.0754908535
 10
6265.233632827
 20
5323.9634908499
 10
6264.6073548563
 20
5323.8417317148
 10
6264.2016721361
 20
5323.7130673791
 10
6264.0260935256
 20
5323.5805136259
 10
6264.0847344385
 20
5323.4471774026
 10
6264.3762203816
 20
5323.3161839974
 10
6264.8937191713
 20
5323.1906037848
 10
6265.6251010748
 20
5323.0733802583
 10
6266.55322312
 20
5322.9672610382
 10
6267.6563309128
 20
5322.8747334689
 10
6268.9085685416
 20
5322.7979663184
 10
6270.2805846177
 20
5322.7387589436
 10
6271.7402202471
 20
5322.6984991151
 10
6273.2532628077
 20
5322.6781304891
 10
6274.7842478645
 20
5322.6781304891
 10
6276.2972904251
 20
5322.6984991151
 10
6277.7569260545
 20
5322.7387589436
 10
6279.1289421306
 20
5322.7979663184
 10
6280.3811797594
 20
5322.8747334689
 10
6281.4842875522
 20
5322.9672610382
 10
6282.4124095974
 20
5323.0733802583
 10
6283.1437915009
 20
5323.1906037848
 10
6283.6612902906
 20
5323.3161839974
 10
6283.9527762337
 20
5323.4471774026
 10
6284.0114171466
 20
5323.5805136259
 10
6283.8358385361
 20
5323.7130673791
 10
6283.4301558159
 20
5323.8417317148
 10
6282.8038778452
 20
5323.9634908499
 10
6281.9716840488
 20
5324.0754908535
 10
6280.953080344
 20
5324.1751065404
 10
6279.7719419383
 20
5324.2600030034
 10
6278.4559537148
 20
5324.3281903412
 10
6277.0359613221
 20
5324.3780703007
 10
6275.5452481783
 20
5324.4084737376
 10
6274.0187553361
 20
5324.4186880213
  0
ARC
  5
AE
330
1F
100
AcDbEntity
  8
0
  6
Continuous
 62
     7
370
    25
100
AcDbCircle
 10
6274.0187553361
 20
5388.5177779116
 30
0.0
 40
65.42721108194718
100
AcDbArc
 50
261.5776627965
 51
278.4223372035
  0
ARC
  5
AF
330
1F
100
AcDbEntity
  8
0
  6
Continuous
 62
     7
370
    18
100
AcDbCircle
 10
6262.8532718472
 20
5335.5212672381
 30
0.0
 40
3.992916334300855
100
AcDbArc
 50
246.5088373588
 51
269.5392105782
  0
ARC
  5
B0
330
1F
100
AcDbEntity
  8
0
  6
Continuous
 62
     7
370
    18
100
AcDbCircle
 10
6285.184238825
 20
5335.5212672381
 30
0.0
 40
3.992916334278881
100
AcDbArc
 50
270.4607894217
 51
293.4911626413
  0
ARC
  5
B1
330
1F
100
AcDbEntity
  8
0
  6
Continuous
 62
     7
370
    25
100
AcDbCircle
 10
6274.3108424386
 20
5334.3895741714
 30
0.0
 40
14.93096519210121
100
AcDbArc
 50
43.3052506112
 51
67.4011558283
  0
SPLINE
  5
B2
330
1F
100
AcDbEntity
  8
0
  6
Continuous
 62
     7
370
    18
100
AcDbSpline
210
0.0
220
0.0
230
1.0
 70
     8
 71
     3
 72
    19
 73
    15
 74
     0
 42
0.000000001
 43
0.00000001
 40
0.0
 40
0.0
 40
0.0
 40
0.0
 40
0.0735290256178297
 40
0.1473158176628962
 40
0.221388117860795
 40
0.2957257054594938
 40
0.3828064755235805
 40
0.4701008738246159
 40
0.5575983918365247
 40
0.6457221006703903
 40
0.7338963150683978
 40
0.8225136636776763
 40
0.9112415010843645
 40
1.0
 40
1.0
 40
1.0
 40
1.0
 10
6297.532885943053
 20
5318.38655091076
 30
0.0
 10
6297.375958263712
 20
5319.301761046515
 30
0.0
 10
6297.061552772797
 20
5321.135389716951
 30
0.0
 10
6296.57176711437
 20
5323.500260552188
 30
0.0
 10
6296.068423923915
 20
5325.541499356666
 30
0.0
 10
6295.524129005126
 20
5327.342765396365
 30
0.0
 10
6294.940730551411
 20
5328.890486251874
 30
0.0
 10
6294.32032843021
 20
5330.196222328465
 30
0.0
 10
6293.693629664319
 20
5331.254281681267
 30
0.0
 10
6293.0624259024
 20
5332.118440928772
 30
0.0
 10
6292.426972313677
 20
5332.82998565157
 30
0.0
 10
6291.78882557326
 20
5333.388178871976
 30
0.0
 10
6291.148423274445
 20
5333.814106912069
 30
0.0
 10
6290.720840395802
 20
5333.990363673651
 30
0.0
 10
6290.507012023113
 20
5334.078507278989
 30
0.0
  0
LINE
  5
B3
330
1F
100
AcDbEntity
  8
0
  6
Continuous
 62
     7
370
    25
100
AcDbLine
 10
6289.9747202421
 20
5334.9613139892
 30
0.0
 11
6290.5070120231
 21
5334.078507279
 31
0.0
  0
LINE
  5
B4
330
1F
100
AcDbEntity
  8
0
  6
Continuous
 62
     7
370
    25
100
AcDbLine
 10
6262.0188997469
 20
5330.7626071672
 30
0.0
 11
6261.5142040084
 21
5330.1134225967
 31
0.0
  0
ARC
  5
B5
330
1F
100
AcDbEntity
  8
0
  6
Continuous
 62
     7
370
    18
100
AcDbCircle
 10
6261.560624679
 20
5334.1438103484
 30
0.0
 40
4.030655071783961
100
AcDbArc
 50
180.9283240342
 51
269.3401153759
  0
LINE
  5
B6
330
1F
100
AcDbEntity
  8
0
  6
Continuous
 62
     7
370
    18
100
AcDbLine
 10
6257.5304986491
 20
5334.078507279
 30
0.0
 11
6258.0561920475
 21
5334.9516201435
 31
0.0
  0
SPLINE
  5
B7
330
1F
100
AcDbEntity
  8
0
  6
Continuous
 62
     7
370
    18
100
AcDbSpline
210
0.0
220
0.0
230
1.0
 70
     8
 71
     3
 72
     9
 73
     5
 74
     0
 42
0.000000001
 43
0.00000001
 40
0.0
 40
0.0
 40
0.0
 40
0.0
 40
0.0077342522640466
 40
1.0
 40
1.0
 40
1.0
 40
1.0
 10
6258.056192047533
 20
5334.951620143519
 30
0.0
 10
6258.056143872556
 20
5334.950618257743
 30
0.0
 10
6258.049915089863
 20
5334.821079455405
 30
0.0
 10
6258.052993489163
 20
5334.691315806504
 30
0.0
 10
6258.056048079347
 20
5334.5625557824
 30
0.0
  0
LINE
  5
B8
330
1F
100
AcDbEntity
  8
0
  6
Continuous
 62
     7
370
    25
100
AcDbLine
 10
6289.9814625929
 20
5334.5625557824
 30
0.0
 11
6289.9814625929
 21
5334.9486144727
 31
0.0
  0
ARC
  5
B9
330
1F
100
AcDbEntity
  8
0
  6
Continuous
 62
     7
370
    18
100
AcDbCircle
 10
6286.4768859932
 20
5334.1438103484
 30
0.0
 40
4.030655071783961
100
AcDbArc
 50
270.6598846241
 51
359.0716759658
  0
LINE
  5
BA
330
1F
100
AcDbEntity
  8
0
  6
Continuous
 62
     7
370
    25
100
AcDbLine
 10
6286.5233066638
 20
5330.1134225967
 30
0.0
 11
6286.0186109253
 21
5330.7626071672
 31
0.0
  0
SPLINE
  5
BB
330
1F
100
AcDbEntity
  8
0
  6
Continuous
 62
     7
370
    25
100
AcDbSpline
210
0.0
220
0.0
230
1.0
 70
     8
 71
     3
 72
    18
 73
    14
 74
     0
 42
0.000000001
 43
0.00000001
 40
0.0
 40
0.0
 40
0.0
 40
0.0
 40
0.0875307441892796
 40
0.2626729464973837
 40
0.3503453877187725
 40
0.4385723536507228
 40
0.5268651923094604
 40
0.6154739358592538
 40
0.7042715776306452
 40
0.7794472518324673
 40
0.8528282194550534
 40
0.9262826130761226
 40
1.0
 40
1.0
 40
1.0
 40
1.0
 10
6257.530498649087
 20
5334.078507278989
 30
0.0
 10
6257.319634362996
 20
5333.991235639507
 30
0.0
 10
6256.686847062352
 20
5333.729340246062
 30
0.0
 10
6255.8439790039
 20
5333.083486431589
 30
0.0
 10
6255.001867666601
 20
5332.15182730881
 30
0.0
 10
6254.369638265403
 20
5331.293277000983
 30
0.0
 10
6253.73754921904
 20
5330.235382561928
 30
0.0
 10
6253.107946785524
 20
5328.91863698695
 30
0.0
 10
6252.51538388856
 20
5327.350704792238
 30
0.0
 10
6251.966825735034
 20
5325.533402812046
 30
0.0
 10
6251.463991585698
 20
5323.491558626855
 30
0.0
 10
6250.976056770633
 20
5321.135760666705
 30
0.0
 10
6250.661955840531
 20
5319.30404524349
 30
0.0
 10
6250.504624729147
 20
5318.38655091076
 30
0.0
  0
LINE
  5
BC
330
1F
100
AcDbEntity
  8
0
  6
Continuous
 62
     7
370
    25
100
AcDbLine
 10
6250.6218611162
 20
5320.6915790856
 30
0.0
 11
6250.6422515033
 21
5320.8201605802
 31
0.0
  0
LINE
  5
BD
330
1F
100
AcDbEntity
  8
0
  6
Continuous
 62
     7
370
    18
100
AcDbLine
 10
6258.0561920475
 20
5334.9516201435
 30
0.0
 11
6258.0930408012
 21
5335.5040921485
 31
0.0
  0
SPLINE
  5
BE
330
1F
100
AcDbEntity
  8
0
  6
Continuous
 62
     7
370
    18
100
AcDbSpline
210
0.0
220
0.0
230
1.0
 70
     8
 71
     3
 72
    19
 73
    15
 74
     0
 42
0.000000001
 43
0.00000001
 40
0.0
 40
0.0
 40
0.0
 40
0.0
 40
0.0757378782528944
 40
0.1516678983541633
 40
0.2281977766452251
 40
0.3049363652431374
 40
0.3791868582272388
 40
0.4536063624693518
 40
0.5284760127593716
 40
0.6034816543654522
 40
0.6797978939504593
 40
0.7562206353329857
 40
0.9095497873258831
 40
1.0
 40
1.0
 40
1.0
 40
1.0
 10
6255.4973937096
 20
5300.627464403933
 30
0.0
 10
6255.821934830645
 20
5299.573126559316
 30
0.0
 10
6256.471840411495
 20
5297.461776086641
 30
0.0
 10
6257.465578448582
 20
5294.172893157425
 30
0.0
 10
6258.470253634584
 20
5290.792113338279
 30
0.0
 10
6259.476609348496
 20
5287.358373689786
 30
0.0
 10
6260.48944861525
 20
5283.896340568544
 30
0.0
 10
6261.503184515384
 20
5280.414000227141
 30
0.0
 10
6262.498467119258
 20
5276.873718803328
 30
0.0
 10
6263.450002731479
 20
5273.259155380418
 30
0.0
 10
6264.334131680634
 20
5269.579034037461
 30
0.0
 10
6265.433090966983
 20
5264.592150958906
 30
0.0
 10
6266.522358858725
 20
5259.33966508371
 30
0.0
 10
6267.384215170722
 20
5255.342257326271
 30
0.0
 10
6267.703992387392
 20
5253.859086745778
 30
0.0
  0
SPLINE
  5
BF
330
1F
100
AcDbEntity
  8
0
  6
Continuous
 62
     7
370
    18
100
AcDbSpline
210
0.0
220
0.0
230
1.0
 70
     8
 71
     3
 72
    21
 73
    17
 74
     0
 42
0.000000001
 43
0.00000001
 40
0.0
 40
0.0
 40
0.0
 40
0.0
 40
0.0777495317370316
 40
0.1555536575133303
 40
0.2335546603700242
 40
0.3116393678316114
 40
0.4068172050865222
 40
0.5022563527984718
 40
0.5980750904174041
 40
0.6943405470139801
 40
0.7283241180344274
 40
0.795381382972198
 40
0.8603432727571754
 40
0.923753585129206
 40
0.9618080947502577
 40
1.0
 40
1.0
 40
1.0
 40
1.0
 10
6261.514204008396
 20
5330.113422596723
 30
0.0
 10
6261.3431998437
 20
5329.85325297562
 30
0.0
 10
6261.001071438884
 20
5329.332731047933
 30
0.0
 10
6260.488872162029
 20
5328.364689735184
 30
0.0
 10
6259.977608911857
 20
5327.239790878956
 30
0.0
 10
6259.430940675532
 20
5325.831149296679
 30
0.0
 10
6258.850389774466
 20
5324.06340151191
 30
0.0
 10
6258.238453964344
 20
5321.820989114465
 30
0.0
 10
6257.63463899781
 20
5319.142460492191
 30
0.0
 10
6257.172135178037
 20
5316.62418187858
 30
0.0
 10
6256.781120900685
 20
5314.122284332821
 30
0.0
 10
6256.461321497579
 20
5311.796593937078
 30
0.0
 10
6256.110168426019
 20
5308.661636075961
 30
0.0
 10
6255.84304611372
 20
5305.656427793787
 30
0.0
 10
6255.642831815669
 20
5302.954396656856
 30
0.0
 10
6255.545931283035
 20
5301.404039733182
 30
0.0
 10
6255.4973937096
 20
5300.627464403933
 30
0.0
  0
SPLINE
  5
C0
330
1F
100
AcDbEntity
  8
0
  6
Continuous
 62
     7
370
    18
100
AcDbSpline
210
0.0
220
0.0
230
1.0
 70
     8
 71
     3
 72
    21
 73
    17
 74
     0
 42
0.000000001
 43
0.00000001
 40
0.0
 40
0.0
 40
0.0
 40
0.0
 40
0.0319720143616157
 40
0.0920657816061619
 40
0.1526944944393241
 40
0.2139683279826227
 40
0.2757478205824654
 40
0.3252297131965337
 40
0.4274324650813743
 40
0.5367877292949477
 40
0.6529860233067472
 40
0.7125052859984323
 40
0.7763594795393778
 40
0.8461878395305339
 40
0.9160674933826753
 40
0.9999999999999999
 40
0.9999999999999999
 40
0.9999999999999999
 40
0.9999999999999999
 10
6292.540116962599
 20
5300.627464403933
 30
0.0
 10
6292.499637598141
 20
5301.278247687081
 30
0.0
 10
6292.383074272298
 20
5303.152226315437
 30
0.0
 10
6292.161268030905
 20
5306.093790443122
 30
0.0
 10
6291.860644303009
 20
5309.299364153636
 30
0.0
 10
6291.525823801018
 20
5312.180908924932
 30
0.0
 10
6291.192101043133
 20
5314.565463105948
 30
0.0
 10
6290.766244460063
 20
5317.208448232172
 30
0.0
 10
6290.228089432847
 20
5319.993469324027
 30
0.0
 10
6289.535005461069
 20
5322.868542973144
 30
0.0
 10
6288.921850105513
 20
5324.905297563604
 30
0.0
 10
6288.402465155667
 20
5326.366467437448
 30
0.0
 10
6287.981667352721
 20
5327.415706481107
 30
0.0
 10
6287.536590016443
 20
5328.383868650718
 30
0.0
 10
6287.046191202623
 20
5329.315252082239
 30
0.0
 10
6286.70790390652
 20
5329.831639401291
 30
0.0
 10
6286.523306663805
 20
5330.113422596723
 30
0.0
  0
SPLINE
  5
C1
330
1F
100
AcDbEntity
  8
0
  6
Continuous
 62
     7
370
    18
100
AcDbSpline
210
0.0
220
0.0
230
1.0
 70
     8
 71
     3
 72
    19
 73
    15
 74
     0
 42
0.000000001
 43
0.00000001
 40
0.0
 40
0.0
 40
0.0
 40
0.0
 40
0.0904501871301134
 40
0.2398564947198184
 40
0.3147443684780452
 40
0.3897198502511866
 40
0.4656869831594193
 40
0.5417919794487192
 40
0.6183398609444506
 40
0.695063691753488
 40
0.7707998259446407
 40
0.846738334429118
 40
0.9232743865181797
 40
1.0
 40
1.0
 40
1.0
 40
1.0
 10
6280.333518284809
 20
5253.859086745778
 30
0.0
 10
6280.653277647231
 20
5255.342264402643
 30
0.0
 10
6281.501217958449
 20
5259.275366202763
 30
0.0
 10
6282.573028630356
 20
5264.438124955144
 30
0.0
 10
6283.643748650285
 20
5269.316043027134
 30
0.0
 10
6284.514583936115
 20
5272.968039200551
 30
0.0
 10
6285.463940624081
 20
5276.599981497676
 30
0.0
 10
6286.47600330131
 20
5280.211704032644
 30
0.0
 10
6287.516027297589
 20
5283.787334958865
 30
0.0
 10
6288.54550157949
 20
5287.30564423387
 30
0.0
 10
6289.555776526951
 20
5290.753060260288
 30
0.0
 10
6290.556291797515
 20
5294.120616760458
 30
0.0
 10
6291.554515505363
 20
5297.425491577295
 30
0.0
 10
6292.211312357551
 20
5299.559260412444
 30
0.0
 10
6292.540116962599
 20
5300.627464403933
 30
0.0
  0
LINE
  5
C2
330
1F
100
AcDbEntity
  8
0
  6
Continuous
 62
     7
370
    25
100
AcDbLine
 10
6280.3335182848
 20
5253.8590867458
 30
0.0
 11
6267.7039923874
 21
5253.8590867458
 31
0.0
  0
SPLINE
  5
C3
330
1F
100
AcDbEntity
  8
0
  6
Continuous
 62
     7
370
    18
100
AcDbSpline
210
0.0
220
0.0
230
1.0
 70
     8
 71
     3
 72
    20
 73
    16
 74
     0
 42
0.000000001
 43
0.00000001
 40
0.0
 40
0.0
 40
0.0
 40
0.0
 40
0.0877871169163106
 40
0.1610069120136407
 40
0.2342772648621191
 40
0.3120177561523758
 40
0.4500688102052734
 40
0.5823002467599951
 40
0.6443171363175645
 40
0.7063258387574248
 40
0.7685269846149727
 40
0.8607955153305449
 40
0.9071242716886081
 40
0.9534499056641119
 40
1.0
 40
1.0
 40
1.0
 40
1.0
 10
6290.507012023113
 20
5334.078507278989
 30
0.0
 10
6290.69171460954
 20
5333.791475413733
 30
0.0
 10
6291.030470387452
 20
5333.265041514343
 30
0.0
 10
6291.520816168391
 20
5332.314768733029
 30
0.0
 10
6291.987926610346
 20
5331.276054504006
 30
0.0
 10
6292.586133030177
 20
5329.732965208093
 30
0.0
 10
6293.297946595861
 20
5327.493888831956
 30
0.0
 10
6293.961624172439
 20
5324.795792803173
 30
0.0
 10
6294.458653886372
 20
5322.327879700137
 30
0.0
 10
6294.811092005471
 20
5320.329054611677
 30
0.0
 10
6295.207444901087
 20
5317.737872912448
 30
0.0
 10
6295.555382844346
 20
5314.976051821202
 30
0.0
 10
6295.849279117341
 20
5312.08123733015
 30
0.0
 10
6296.057006084944
 20
5309.740586346359
 30
0.0
 10
6296.181680162933
 20
5308.043360885718
 30
0.0
 10
6296.244167856942
 20
5307.192697243682
 30
0.0
  0
SPLINE
  5
C4
330
1F
100
AcDbEntity
  8
0
  6
Continuous
 62
     7
370
    18
100
AcDbSpline
210
0.0
220
0.0
230
1.0
 70
     8
 71
     3
 72
    17
 73
    13
 74
     0
 42
0.000000001
 43
0.00000001
 40
0.0
 40
0.0
 40
0.0
 40
0.0
 40
0.1437890110848735
 40
0.2161874264739
 40
0.2454213302263905
 40
0.2748718268687955
 40
0.3012441881781435
 40
0.3434070556579821
 40
0.4471577580929475
 40
0.6487859319550062
 40
0.8513491314233853
 40
1.0
 40
1.0
 40
1.0
 40
1.0
 10
6296.244167856942
 20
5307.192697243682
 30
0.0
 10
6296.192282009722
 20
5307.444409810949
 30
0.0
 10
6296.114271404489
 20
5307.822860790741
 30
0.0
 10
6295.86822033558
 20
5307.960996067285
 30
0.0
 10
6295.6544731964
 20
5307.849619274441
 30
0.0
 10
6295.481830849491
 20
5307.677767893204
 30
0.0
 10
6295.272584777691
 20
5307.3963015619
 30
0.0
 10
6294.924817590946
 20
5306.820009121563
 30
0.0
 10
6294.348087737645
 20
5305.627832566053
 30
0.0
 10
6293.662255504503
 20
5303.966792086288
 30
0.0
 10
6293.040970220874
 20
5302.214088272861
 30
0.0
 10
6292.689061740313
 20
5301.099297891225
 30
0.0
 10
6292.540116962599
 20
5300.627464403933
 30
0.0
  0
SPLINE
  5
C5
330
1F
100
AcDbEntity
  8
0
  6
Continuous
 62
     7
370
    18
100
AcDbSpline
210
0.0
220
0.0
230
1.0
 70
     8
 71
     3
 72
    21
 73
    17
 74
     0
 42
0.000000001
 43
0.00000001
 40
0.0
 40
0.0
 40
0.0
 40
0.0
 40
0.0081159628260483
 40
0.0713876599173936
 40
0.1351614365323306
 40
0.1994897969867947
 40
0.2642323114232467
 40
0.3655298862532484
 40
0.467245602759902
 40
0.5182189749589708
 40
0.5955985540691052
 40
0.6731086411908005
 40
0.7546281145771471
 40
0.8363210303697438
 40
0.9180894978771705
 40
1.0
 40
1.0
 40
1.0
 40
1.0
 10
6251.793342815258
 20
5307.192697243682
 30
0.0
 10
6251.804010397288
 20
5307.342915177782
 30
0.0
 10
6251.897841989969
 20
5308.664225664642
 30
0.0
 10
6252.088879786959
 20
5311.050251104146
 30
0.0
 10
6252.38834178476
 20
5314.110193339389
 30
0.0
 10
6252.715403396068
 20
5316.856868283743
 30
0.0
 10
6253.128820344874
 20
5319.770341876278
 30
0.0
 10
6253.634270985994
 20
5322.685549937891
 30
0.0
 10
6254.132181646789
 20
5325.005091672698
 30
0.0
 10
6254.591693200473
 20
5326.854018341933
 30
0.0
 10
6255.00831748539
 20
5328.334580455894
 30
0.0
 10
6255.492442517357
 20
5329.821310314069
 30
0.0
 10
6255.990012545045
 20
5331.136611047496
 30
0.0
 10
6256.500107637371
 20
5332.285849821272
 30
0.0
 10
6257.013750987393
 20
5333.277870553577
 30
0.0
 10
6257.358149809628
 20
5333.811474023335
 30
0.0
 10
6257.530498649087
 20
5334.078507278989
 30
0.0
  0
SPLINE
  5
C6
330
1F
100
AcDbEntity
  8
0
  6
Continuous
 62
     7
370
    18
100
AcDbSpline
210
0.0
220
0.0
230
1.0
 70
     8
 71
     3
 72
    18
 73
    14
 74
     0
 42
0.000000001
 43
0.00000001
 40
0.0
 40
0.0
 40
0.0
 40
0.0
 40
0.2742392079918653
 40
0.4130235444021631
 40
0.5514389204618669
 40
0.6365270926588972
 40
0.6792147596172723
 40
0.7127787288275125
 40
0.7394529011476336
 40
0.766135076081863
 40
0.8035733560776139
 40
0.8704909434831632
 40
1.0
 40
1.0
 40
1.0
 40
1.0
 10
6255.4973937096
 20
5300.627464403933
 30
0.0
 10
6255.217596311979
 20
5301.49799614159
 30
0.0
 10
6254.796201742888
 20
5302.809078194497
 30
0.0
 10
6254.123058227383
 20
5304.578961567155
 30
0.0
 10
6253.616430078689
 20
5305.773137524522
 30
0.0
 10
6253.18010092262
 20
5306.679102231094
 30
0.0
 10
6252.871935137532
 20
5307.226622415193
 30
0.0
 10
6252.655073374155
 20
5307.552595938965
 30
0.0
 10
6252.471078535079
 20
5307.769391661319
 30
0.0
 10
6252.301739728173
 20
5307.904282544171
 30
0.0
 10
6252.116669559063
 20
5307.946433230284
 30
0.0
 10
6251.911417512064
 20
5307.764102327134
 30
0.0
 10
6251.840259254793
 20
5307.419742434335
 30
0.0
 10
6251.793342815258
 20
5307.192697243682
 30
0.0
  0
SPLINE
  5
C7
330
1F
100
AcDbEntity
  8
0
  6
Continuous
 62
     7
370
    25
100
AcDbSpline
210
0.0
220
0.0
230
1.0
 70
     8
 71
     3
 72
    16
 73
    12
 74
     0
 42
0.000000001
 43
0.00000001
 40
0.0
 40
0.0
 40
0.0
 40
0.0
 40
0.1644851507796755
 40
0.2816155642885398
 40
0.3987144118379372
 40
0.518776009035534
 40
0.6388255861444493
 40
0.7281323027706429
 40
0.8174334986596338
 40
0.9087209718310569
 40
1.0
 40
1.0
 40
1.0
 40
1.0
 10
6299.41487700169
 20
5264.828979149052
 30
0.0
 10
6299.390419503116
 20
5268.036620514099
 30
0.0
 10
6299.348545739866
 20
5273.528433779742
 30
0.0
 10
6299.228316057168
 20
5281.220751676328
 30
0.0
 10
6299.079918645596
 20
5287.959088610226
 30
0.0
 10
6298.87865188556
 20
5294.590113166918
 30
0.0
 10
6298.645306113001
 20
5300.50093379236
 30
0.0
 10
6298.395896980841
 20
5305.65231241847
 30
0.0
 10
6298.140947310334
 20
5310.114735746965
 30
0.0
 10
6297.856621867928
 20
5314.407296340372
 30
0.0
 10
6297.640794590161
 20
5317.060173625461
 30
0.0
 10
6297.532885943053
 20
5318.38655091076
 30
0.0
  0
LINE
  5
C8
330
1F
100
AcDbEntity
  8
0
  6
Continuous
 62
     7
370
    25
100
AcDbLine
 10
6299.4148770017
 20
5264.8289791491
 30
0.0
 11
6299.4148770017
 21
5225.8693652496
 31
0.0
  0
SPLINE
  5
C9
330
1F
100
AcDbEntity
  8
0
  6
Continuous
 62
     7
370
    18
100
AcDbSpline
210
0.0
220
0.0
230
1.0
 70
     8
 71
     3
 72
    28
 73
    24
 74
     0
 42
0.000000001
 43
0.00000001
 40
0.0
 40
0.0
 40
0.0
 40
0.0
 40
0.0460881944490285
 40
0.0924720006175496
 40
0.1435675960117982
 40
0.1950151973640259
 40
0.2474834968708789
 40
0.300266132790947
 40
0.3441169395540702
 40
0.3881429661398781
 40
0.4326739750285455
 40
0.4773572210487873
 40
0.5181260936569818
 40
0.5589717637362456
 40
0.6020453142086376
 40
0.6451730797322475
 40
0.6901592551717032
 40
0.7351803983732477
 40
0.8251897628073411
 40
0.9079264524817287
 40
0.9685444480505256
 40
0.9932280946388253
 40
0.9999999999999999
 40
0.9999999999999999
 40
0.9999999999999999
 40
0.9999999999999999
 10
6296.244167856942
 20
5307.192697243682
 30
0.0
 10
6296.35536231388
 20
5306.473041014207
 30
0.0
 10
6296.578464433924
 20
5305.029112648345
 30
0.0
 10
6296.90311797868
 20
5302.410169510576
 30
0.0
 10
6297.22031353416
 20
5299.422094206177
 30
0.0
 10
6297.525844929978
 20
5296.014720828055
 30
0.0
 10
6297.809046218619
 20
5292.310401751384
 30
0.0
 10
6298.053647807243
 20
5288.569146603732
 30
0.0
 10
6298.261659310018
 20
5284.871717024385
 30
0.0
 10
6298.437199437039
 20
5281.2605684999
 30
0.0
 10
6298.593312091049
 20
5277.513171589899
 30
0.0
 10
6298.726268066621
 20
5273.766103334184
 30
0.0
 10
6298.838882111113
 20
5270.058972643863
 30
0.0
 10
6298.935936130539
 20
5266.350254406029
 30
0.0
 10
6299.021620972977
 20
5262.532061631181
 30
0.0
 10
6299.097752367892
 20
5258.558106201677
 30
0.0
 10
6299.163803081477
 20
5254.500839848581
 30
0.0
 10
6299.239669712837
 20
5248.990291709615
 30
0.0
 10
6299.310373948771
 20
5242.291232813596
 30
0.0
 10
6299.365232697281
 20
5235.090511052206
 30
0.0
 10
6299.395347785252
 20
5229.898065973941
 30
0.0
 10
6299.409421339714
 20
5227.051455807436
 30
0.0
 10
6299.413910554767
 20
5226.078769849059
 30
0.0
 10
6299.414877014981
 20
5225.869365249614
 30
0.0
  0
LINE
  5
CA
330
1F
100
AcDbEntity
  8
0
  6
Continuous
 62
     7
370
    25
100
AcDbLine
 10
6248.6226336705
 20
5264.8289791491
 30
0.0
 11
6248.6226336705
 21
5225.8693617642
 31
0.0
  0
SPLINE
  5
CB
330
1F
100
AcDbEntity
  8
0
  6
Continuous
 62
     7
370
    25
100
AcDbSpline
210
0.0
220
0.0
230
1.0
 70
     8
 71
     3
 72
    17
 73
    13
 74
     0
 42
0.000000001
 43
0.00000001
 40
0.0
 40
0.0
 40
0.0
 40
0.0
 40
0.0921927394932901
 40
0.1849829061638551
 40
0.2971142944205253
 40
0.4092585493908596
 40
0.5248538690061929
 40
0.6404621161073674
 40
0.729913295988089
 40
0.8193753451608056
 40
0.9096831140915789
 40
1.0
 40
1.0
 40
1.0
 40
1.0
 10
6250.504624729147
 20
5318.38655091076
 30
0.0
 10
6250.395654654826
 20
5317.046601996166
 30
0.0
 10
6250.177008358562
 20
5314.358021033122
 30
0.0
 10
6249.866883396407
 20
5309.661739933576
 30
0.0
 10
6249.57255200396
 20
5304.379822434675
 30
0.0
 10
6249.303751495679
 20
5298.427378287987
 30
0.0
 10
6249.079751584555
 20
5292.178703831893
 30
0.0
 10
6248.915302273364
 20
5286.169648068164
 30
0.0
 10
6248.799600068526
 20
5280.54991544078
 30
0.0
 10
6248.719099836668
 20
5275.357782390303
 30
0.0
 10
6248.659541187722
 20
5270.113719385858
 30
0.0
 10
6248.634936590218
 20
5266.590618503823
 30
0.0
 10
6248.622633670511
 20
5264.828979149052
 30
0.0
  0
SPLINE
  5
CC
330
1F
100
AcDbEntity
  8
0
  6
Continuous
 62
     7
370
    18
100
AcDbSpline
210
0.0
220
0.0
230
1.0
 70
     8
 71
     3
 72
    28
 73
    24
 74
     0
 42
0.000000001
 43
0.00000001
 40
0.0
 40
0.0
 40
0.0
 40
0.0
 40
0.0067718712491241
 40
0.0314555286033952
 40
0.0920735506121245
 40
0.1748102763738236
 40
0.2648196800673522
 40
0.3098075096892895
 40
0.3548270373623124
 40
0.3979029819711714
 40
0.4410283895304238
 40
0.4818002428454969
 40
0.5226429651209713
 40
0.5665315084275111
 40
0.6105572044108756
 40
0.6550553720302386
 40
0.6997340398537397
 40
0.750895696549544
 40
0.8023412456062354
 40
0.8547502640720072
 40
0.9075279708491324
 40
0.9536208327693847
 40
1.0
 40
1.0
 40
1.0
 40
1.0
 10
6248.622633670511
 20
5225.869368688084
 30
0.0
 10
6248.623600126444
 20
5226.078772141358
 30
0.0
 10
6248.628089340892
 20
5227.051456953547
 30
0.0
 10
6248.642162884217
 20
5229.89806597228
 30
0.0
 10
6248.672277976211
 20
5235.090511069639
 30
0.0
 10
6248.727136723367
 20
5242.291232721703
 30
0.0
 10
6248.797830135583
 20
5248.989266589989
 30
0.0
 10
6248.873692470068
 20
5254.49982063031
 30
0.0
 10
6248.939713251099
 20
5258.555517084812
 30
0.0
 10
6249.015857468532
 20
5262.530494614411
 30
0.0
 10
6249.101484437586
 20
5266.346494642012
 30
0.0
 10
6249.198567254263
 20
5270.056784180241
 30
0.0
 10
6249.310458811128
 20
5273.740653194319
 30
0.0
 10
6249.442002162271
 20
5277.452975237685
 30
0.0
 10
6249.59666982616
 20
5281.179439688392
 30
0.0
 10
6249.772767592416
 20
5284.815276241347
 30
0.0
 10
6249.980109173563
 20
5288.505784740034
 30
0.0
 10
6250.22133596971
 20
5292.20427542242
 30
0.0
 10
6250.500442830096
 20
5295.878413501551
 30
0.0
 10
6250.8081137536
 20
5299.333269520853
 30
0.0
 10
6251.129969252564
 20
5302.373710171963
 30
0.0
 10
6251.458367311824
 20
5305.024053986902
 30
0.0
 10
6251.681454078994
 20
5306.468325607781
 30
0.0
 10
6251.793342815258
 20
5307.192697243682
 30
0.0
  0
LINE
  5
CD
330
1F
100
AcDbEntity
  8
0
  6
Continuous
 62
     7
370
    25
100
AcDbLine
 10
6299.4148770017
 20
5225.8693652496
 30
0.0
 11
6299.4148770017
 21
5225.8590867458
 31
0.0
  0
LINE
  5
CE
330
1F
100
AcDbEntity
  8
0
  6
Continuous
 62
     7
370
    25
100
AcDbLine
 10
6299.4148749567
 20
5225.8590867458
 30
0.0
 11
6248.6226357155
 21
5225.8590867458
 31
0.0
  0
LINE
  5
CF
330
1F
100
AcDbEntity
  8
0
  6
Continuous
 62
     7
370
    25
100
AcDbLine
 10
6248.6226336705
 20
5225.8693617642
 30
0.0
 11
6248.6226336705
 21
5225.8590867458
 31
0.0
  0
LINE
  5
D0
330
1F
100
AcDbEntity
  8
0
  6
Continuous
 62
     7
370
    25
100
AcDbLine
 10
6266.5187553361
 20
5253.8590867458
 30
0.0
 11
6267.7039923874
 21
5253.8590867458
 31
0.0
  0
SPLINE
  5
D1
330
1F
100
AcDbEntity
  8
0
  6
Continuous
 62
     7
370
    25
100
AcDbSpline
210
0.0
220
0.0
230
1.0
 70
     8
 71
     3
 72
    39
 73
    35
 74
     0
 42
0.000000001
 43
0.00000001
 40
0.0
 40
0.0
 40
0.0
 40
0.0
 40
0.027970149928745
 40
0.0561428302824431
 40
0.0849406849442331
 40
0.1139486764098248
 40
0.1419166830315425
 40
0.1700722417732743
 40
0.1988216789278138
 40
0.2277791377318318
 40
0.256060204357428
 40
0.284555261217797
 40
0.3137674314915756
 40
0.3432490304338402
 40
0.3958455122453803
 40
0.4226606477054103
 40
0.4500080873059973
 40
0.4729440512792781
 40
0.5193144676005593
 40
0.5427992086096859
 40
0.5646693518896508
 40
0.6087902456292636
 40
0.6310626751296244
 40
0.654793042665342
 40
0.7026267264096919
 40
0.7267497660792012
 40
0.7808922665915459
 40
0.8083090689502685
 40
0.836057487838369
 40
0.8653868545402549
 40
0.8949210398775815
 40
0.9251220762702329
 40
0.9555644546457764
 40
1.0
 40
1.0
 40
1.0
 40
1.0
 10
6266.5187553361
 20
5243.159086745777
 30
0.0
 10
6266.362263099924
 20
5243.163067217741
 30
0.0
 10
6266.048145475295
 20
5243.171056984061
 30
0.0
 10
6265.579402212271
 20
5243.235589076083
 30
0.0
 10
6265.114012746757
 20
5243.339225657672
 30
0.0
 10
6264.662284785788
 20
5243.484158129841
 30
0.0
 10
6264.229055315422
 20
5243.666382238274
 30
0.0
 10
6263.814555378846
 20
5243.884823001556
 30
0.0
 10
6263.4156526154
 20
5244.142193024069
 30
0.0
 10
6263.03955789554
 20
5244.43556418781
 30
0.0
 10
6262.690389974839
 20
5244.761871291388
 30
0.0
 10
6262.368549450683
 20
5245.12124271762
 30
0.0
 10
6262.074342794223
 20
5245.516959330747
 30
0.0
 10
6261.744715461253
 20
5246.059309077149
 30
0.0
 10
6261.490134631526
 20
5246.637820915922
 30
0.0
 10
6261.315383050261
 20
5247.235288325513
 30
0.0
 10
6261.227440655663
 20
5247.678539339058
 30
0.0
 10
6261.163366136571
 20
5248.241876598463
 30
0.0
 10
6261.163944291647
 20
5248.788335477938
 30
0.0
 10
6261.225490347133
 20
5249.318841899047
 30
0.0
 10
6261.322807721508
 20
5249.827356668722
 30
0.0
 10
6261.470839163358
 20
5250.31223313079
 30
0.0
 10
6261.669927169374
 20
5250.780992025668
 30
0.0
 10
6261.909949192583
 20
5251.248788562725
 30
0.0
 10
6262.203918660342
 20
5251.691208822525
 30
0.0
 10
6262.646935285144
 20
5252.220616236651
 30
0.0
 10
6263.0670712931
 20
5252.615190625183
 30
0.0
 10
6263.544924915853
 20
5252.963920182829
 30
0.0
 10
6263.935595396021
 20
5253.20180228657
 30
0.0
 10
6264.356455469939
 20
5253.410424550607
 30
0.0
 10
6264.808427845865
 20
5253.586374877239
 30
0.0
 10
6265.28321570097
 20
5253.721750708811
 30
0.0
 10
6265.85241458694
 20
5253.832791842662
 30
0.0
 10
6266.270592116909
 20
5253.849293816539
 30
0.0
 10
6266.5187553361
 20
5253.859086745777
 30
0.0
  0
SPLINE
  5
D2
330
1F
100
AcDbEntity
  8
0
  6
Continuous
 62
     7
370
    25
100
AcDbSpline
210
0.0
220
0.0
230
1.0
 70
    24
 71
     3
 72
    11
 73
     7
 74
     0
 42
0.000000001
 43
0.00000001
 40
0.0
 40
0.0
 40
0.0
 40
0.0
 40
0.2492247348644907
 40
0.4987575118395935
 40
0.7492224393611195
 40
1.0
 40
1.0
 40
1.0
 40
1.0
 10
6270.014195728076
 20
5243.159086745777
 30
0.0
 10
6269.720006576377
 20
5243.159086745777
 30
0.0
 10
6269.131264654789
 20
5243.159086745777
 30
0.0
 10
6268.254405298077
 20
5243.159086745777
 30
0.0
 10
6267.381866196227
 20
5243.159086745777
 30
0.0
 10
6266.80657856157
 20
5243.159086745777
 30
0.0
 10
6266.5187553361
 20
5243.159086745777
 30
0.0
  0
SPLINE
  5
D3
330
1F
100
AcDbEntity
  8
0
  6
Continuous
 62
     7
370
    18
100
AcDbSpline
210
0.0
220
0.0
230
1.0
 70
     8
 71
     3
 72
    12
 73
     8
 74
     0
 42
0.000000001
 43
0.00000001
 40
0.0
 40
0.0
 40
0.0
 40
0.0
 40
0.4963927398243354
 40
0.7446427026459358
 40
0.8687824933808845
 40
0.9929291998186306
 40
1.0
 40
1.0
 40
1.0
 40
1.0
 10
6270.014195728076
 20
5243.159086745777
 30
0.0
 10
6270.639645742282
 20
5240.296510667394
 30
0.0
 10
6271.577888290137
 20
5236.002337492558
 30
0.0
 10
6272.759889275272
 20
5231.012312154132
 30
0.0
 10
6273.442336803898
 20
5228.161972607577
 30
0.0
 10
6273.835846230986
 20
5226.706504668062
 30
0.0
 10
6274.009403036087
 20
5225.951664282095
 30
0.0
 10
6274.0187553361
 20
5225.910988874708
 30
0.0
  0
SPLINE
  5
D4
330
1F
100
AcDbEntity
  8
0
  6
Continuous
 62
     7
370
    18
100
AcDbSpline
210
0.0
220
0.0
230
1.0
 70
     8
 71
     3
 72
    12
 73
     8
 74
     0
 42
0.000000001
 43
0.00000001
 40
0.0
 40
0.0
 40
0.0
 40
0.0
 40
0.0070708002226454
 40
0.1310927200116968
 40
0.2551445640232025
 40
0.5033311790314501
 40
1.0
 40
1.0
 40
1.0
 40
1.0
 10
6274.0187553361
 20
5225.910988874708
 30
0.0
 10
6274.028107606267
 20
5225.951664289381
 30
0.0
 10
6274.201498806122
 20
5226.705786959965
 30
0.0
 10
6274.594686243254
 20
5228.160040835129
 30
0.0
 10
6275.276776653108
 20
5231.008790110983
 30
0.0
 10
6276.459001003182
 20
5235.999519593784
 30
0.0
 10
6277.397514879142
 20
5240.294918964816
 30
0.0
 10
6278.023314944125
 20
5243.159086745777
 30
0.0
  0
SPLINE
  5
D5
330
1F
100
AcDbEntity
  8
0
  6
Continuous
 62
     7
370
    25
100
AcDbSpline
210
0.0
220
0.0
230
1.0
 70
    24
 71
     3
 72
     9
 73
     5
 74
     0
 42
0.000000001
 43
0.00000001
 40
0.0
 40
0.0
 40
0.0
 40
0.0
 40
0.4987579434758676
 40
1.0
 40
1.0
 40
1.0
 40
1.0
 10
6281.5187553361
 20
5243.159086745777
 30
0.0
 10
6280.944774147786
 20
5243.159086745777
 30
0.0
 10
6279.793953001332
 20
5243.159086745778
 30
0.0
 10
6278.614504257864
 20
5243.159086745778
 30
0.0
 10
6278.023314944125
 20
5243.159086745777
 30
0.0
  0
SPLINE
  5
D6
330
1F
100
AcDbEntity
  8
0
  6
Continuous
 62
     7
370
    25
100
AcDbSpline
210
0.0
220
0.0
230
1.0
 70
     8
 71
     3
 72
    39
 73
    35
 74
     0
 42
0.000000001
 43
0.00000001
 40
0.0
 40
0.0
 40
0.0
 40
0.0
 40
0.0280310304248358
 40
0.0562736935661308
 40
0.0851586811041326
 40
0.1142543754363433
 40
0.1422810673772145
 40
0.1704865618695055
 40
0.1992455661041765
 40
0.2281931734004271
 40
0.2576147775880736
 40
0.28724729494845
 40
0.3175794030559402
 40
0.3481721555492417
 40
0.3761455855480172
 40
0.4043608697280822
 40
0.4334110278704756
 40
0.4627825351897403
 40
0.5111876219112189
 40
0.5604442510739877
 40
0.6042732406049783
 40
0.6486827190491297
 40
0.6944968399123223
 40
0.7408368632964015
 40
0.7663830271869541
 40
0.7920827837217381
 40
0.8180899919650373
 40
0.8442498674216502
 40
0.872149741702835
 40
0.9004341701854254
 40
0.9289146288900346
 40
0.9578015477963941
 40
0.9788578674436121
 40
1.0
 40
1.0
 40
1.0
 40
1.0
 10
6281.5187553361
 20
5253.859086745778
 30
0.0
 10
6281.675415258494
 20
5253.855090483002
 30
0.0
 10
6281.989917876958
 20
5253.84706778589
 30
0.0
 10
6282.457448469791
 20
5253.782641078052
 30
0.0
 10
6282.920306650393
 20
5253.679710681205
 30
0.0
 10
6283.36802099369
 20
5253.536508499351
 30
0.0
 10
6283.796002764901
 20
5253.357441364396
 30
0.0
 10
6284.204186100387
 20
5253.143980153731
 30
0.0
 10
6284.596116619948
 20
5252.89377260314
 30
0.0
 10
6284.970187432888
 20
5252.606060950732
 30
0.0
 10
6285.321877869002
 20
5252.282183888312
 30
0.0
 10
6285.649829241594
 20
5251.920491551972
 30
0.0
 10
6285.949301077108
 20
5251.522028769065
 30
0.0
 10
6286.20764918791
 20
5251.100826191854
 30
0.0
 10
6286.42336535393
 20
5250.663784262418
 30
0.0
 10
6286.598198076655
 20
5250.212573368683
 30
0.0
 10
6286.734691025465
 20
5249.734455365487
 30
0.0
 10
6286.847794887356
 20
5249.125964376807
 30
0.0
 10
6286.890377367498
 20
5248.38111340778
 30
0.0
 10
6286.803632256193
 20
5247.551337946861
 30
0.0
 10
6286.598584749392
 20
5246.772415721434
 30
0.0
 10
6286.295035676181
 20
5246.057206038474
 30
0.0
 10
6285.889191037751
 20
5245.390313289082
 30
0.0
 10
6285.465072567121
 20
5244.879541912364
 30
0.0
 10
6285.072635878961
 20
5244.502424273288
 30
0.0
 10
6284.740647700139
 20
5244.230832182591
 30
0.0
 10
6284.386372007288
 20
5243.98563940982
 30
0.0
 10
6284.003704639553
 20
5243.764166582954
 30
0.0
 10
6283.592703653548
 20
5243.570115524887
 30
0.0
 10
6283.154003249633
 20
5243.407911949207
 30
0.0
 10
6282.696466646628
 20
5243.282938950185
 30
0.0
 10
6282.267451752607
 20
5243.206618822942
 30
0.0
 10
6281.873227515779
 20
5243.165902399232
 30
0.0
 10
6281.637072807256
 20
5243.161361708178
 30
0.0
 10
6281.5187553361
 20
5243.159086745777
 30
0.0
  0
LINE
  5
D7
330
1F
100
AcDbEntity
  8
0
  6
Continuous
 62
     7
370
    25
100
AcDbLine
 10
6280.3335182848
 20
5253.8590867458
 30
0.0
 11
6281.5187553361
 21
5253.8590867458
 31
0.0
  0
LINE
  5
D8
330
1F
100
AcDbEntity
  8
0
  6
Continuous
 62
     7
370
    25
100
AcDbLine
 10
6270.0141957281
 20
5243.1590867458
 30
0.0
 11
6278.0233149441
 21
5243.1590867458
 31
0.0
  0
SPLINE
  5
D9
330
1F
100
AcDbEntity
  8
0
  6
Continuous
 62
     7
370
    25
100
AcDbSpline
210
0.0
220
0.0
230
1.0
 70
     8
 71
     3
 72
     9
 73
     5
 74
     0
 42
0.000000001
 43
0.00000001
 40
0.0
 40
0.0
 40
0.0
 40
0.0
 40
0.1669143414430612
 40
0.9999999999999999
 40
0.9999999999999999
 40
0.9999999999999999
 40
0.9999999999999999
 10
6299.518738781383
 20
5232.00874989644
 30
0.0
 10
6299.518740552854
 20
5231.839701865909
 30
0.0
 10
6299.518751165903
 20
5230.826918727742
 30
0.0
 10
6299.518752919787
 20
5229.814134520147
 30
0.0
 10
6299.518754380924
 20
5228.970398521584
 30
0.0
  0
SPLINE
  5
DA
330
1F
100
AcDbEntity
  8
0
  6
Continuous
 62
     7
370
    25
100
AcDbSpline
210
0.0
220
0.0
230
1.0
 70
     8
 71
     3
 72
     9
 73
     5
 74
     0
 42
0.000000001
 43
0.00000001
 40
0.0
 40
0.0
 40
0.0
 40
0.0
 40
0.2653641184853701
 40
1.0
 40
1.0
 40
1.0
 40
1.0
 10
6299.518754619398
 20
5228.64682870615
 30
0.0
 10
6299.518754867357
 20
5228.400235882584
 30
0.0
 10
6299.518755801766
 20
5227.470973761637
 30
0.0
 10
6299.518753915113
 20
5226.541737238263
 30
0.0
 10
6299.518752529109
 20
5225.859086745778
 30
0.0
  0
SPLINE
  5
DB
330
1F
100
AcDbEntity
  8
0
  6
Continuous
 62
     7
370
    25
100
AcDbSpline
210
0.0
220
0.0
230
1.0
 70
     8
 71
     3
 72
    10
 73
     6
 74
     0
 42
0.000000001
 43
0.00000001
 40
0.0
 40
0.0
 40
0.0
 40
0.0
 40
0.3286300828926623
 40
0.7741532309003868
 40
0.9999999999999999
 40
0.9999999999999999
 40
0.9999999999999999
 40
0.9999999999999999
 10
6299.515678696905
 20
5245.584635446664
 30
0.0
 10
6299.516127622655
 20
5244.901966829817
 30
0.0
 10
6299.517185156152
 20
5243.29380573052
 30
0.0
 10
6299.517883254143
 20
5241.216462559384
 30
0.0
 10
6299.518120262075
 20
5239.821785410978
 30
0.0
 10
6299.518199990813
 20
5239.352620320498
 30
0.0
  0
SPLINE
  5
DC
330
1F
100
AcDbEntity
  8
0
  6
Continuous
 62
     7
370
    25
100
AcDbSpline
210
0.0
220
0.0
230
1.0
 70
     8
 71
     3
 72
    11
 73
     7
 74
     0
 42
0.000000001
 43
0.00000001
 40
0.0
 40
0.0
 40
0.0
 40
0.0
 40
0.0488861678869734
 40
0.3108408350712246
 40
0.5811123399634045
 40
1.0
 40
1.0
 40
1.0
 40
1.0
 10
6299.518325838289
 20
5238.685222101503
 30
0.0
 10
6299.518347074565
 20
5238.57642720853
 30
0.0
 10
6299.518482104616
 20
5237.884659028588
 30
0.0
 10
6299.518570955653
 20
5236.591400198307
 30
0.0
 10
6299.518704490128
 20
5234.47470578406
 30
0.0
 10
6299.518725817867
 20
5232.940983506289
 30
0.0
 10
6299.518738781383
 20
5232.00874989644
 30
0.0
  0
SPLINE
  5
DD
330
1F
100
AcDbEntity
  8
0
  6
Continuous
 62
     7
370
    25
100
AcDbSpline
210
0.0
220
0.0
230
1.0
 70
     8
 71
     3
 72
    14
 73
    10
 74
     0
 42
0.000000001
 43
0.00000001
 40
0.0
 40
0.0
 40
0.0
 40
0.0
 40
0.1806755997596247
 40
0.2663783734355679
 40
0.543046942659988
 40
0.5834708207373036
 40
0.9484464621905007
 40
0.9859351072328991
 40
1.0
 40
1.0
 40
1.0
 40
1.0
 10
6248.518758143091
 20
5225.859086745778
 30
0.0
 10
6248.518756855904
 20
5226.541737482044
 30
0.0
 10
6248.518754958145
 20
5227.548200961302
 30
0.0
 10
6248.51875652239
 20
5229.600065578421
 30
0.0
 10
6248.51876181153
 20
5231.121989974888
 30
0.0
 10
6248.518790672014
 20
5233.699123739958
 30
0.0
 10
6248.518916712802
 20
5235.372531218321
 30
0.0
 10
6248.518950541667
 20
5236.946346232707
 30
0.0
 10
6248.519002868636
 20
5237.141133982444
 30
0.0
 10
6248.519017144537
 20
5237.194276190113
 30
0.0
  0
SPLINE
  5
DE
330
1F
100
AcDbEntity
  8
0
  6
Continuous
 62
     7
370
    25
100
AcDbSpline
210
0.0
220
0.0
230
1.0
 70
     8
 71
     3
 72
    11
 73
     7
 74
     0
 42
0.000000001
 43
0.00000001
 40
0.0
 40
0.0
 40
0.0
 40
0.0
 40
0.3393313959279441
 40
0.5227885184126512
 40
0.8500648136966735
 40
0.9999999999999999
 40
0.9999999999999999
 40
0.9999999999999999
 40
0.9999999999999999
 10
6299.518738781397
 20
5232.008608335013
 30
0.0
 10
6299.518717610305
 20
5233.542129521054
 30
0.0
 10
6299.518684993211
 20
5235.90473810495
 30
0.0
 10
6299.518218209959
 20
5239.745539467297
 30
0.0
 10
6299.517662616412
 20
5242.730199917926
 30
0.0
 10
6299.516025565802
 20
5244.884439221291
 30
0.0
 10
6299.515511220489
 20
5245.561280168658
 30
0.0
  0
SPLINE
  5
DF
330
1F
100
AcDbEntity
  8
0
  6
Continuous
 62
     7
370
    25
100
AcDbSpline
210
0.0
220
0.0
230
1.0
 70
     8
 71
     3
 72
    11
 73
     7
 74
     0
 42
0.000000001
 43
0.00000001
 40
0.0
 40
0.0
 40
0.0
 40
0.0
 40
0.3330286671204014
 40
0.5059366348517412
 40
0.9175345127018566
 40
0.9999999999999999
 40
0.9999999999999999
 40
0.9999999999999999
 40
0.9999999999999999
 10
6299.518752529109
 20
5225.859086745567
 30
0.0
 10
6299.518753836297
 20
5226.541747082005
 30
0.0
 10
6299.518755822174
 20
5227.578843606908
 30
0.0
 10
6299.518754040744
 20
5229.459666558103
 30
0.0
 10
6299.518751138918
 20
5230.826851174165
 30
0.0
 10
6299.518740548991
 20
5231.83957224996
 30
0.0
 10
6299.518738781397
 20
5232.008608335013
 30
0.0
  0
LINE
  5
E0
330
1F
100
AcDbEntity
  8
0
  6
Continuous
 62
     7
370
    25
100
AcDbLine
 10
6299.5187525291
 20
5225.8590867458
 30
0.0
 11
6299.4148749567
 21
5225.8590867458
 31
0.0
  0
SPLINE
  5
E1
330
1F
100
AcDbEntity
  8
0
  6
Continuous
 62
     7
370
    25
100
AcDbSpline
210
0.0
220
0.0
230
1.0
 70
     8
 71
     3
 72
    14
 73
    10
 74
     0
 42
0.000000001
 43
0.00000001
 40
0.0
 40
0.0
 40
0.0
 40
0.0
 40
0.1052968336311355
 40
0.3003305319312325
 40
0.4551184944844773
 40
0.6099060839839753
 40
0.6884165292968689
 40
0.8963326096201192
 40
1.0
 40
1.0
 40
1.0
 40
1.0
 10
6248.522103467879
 20
5245.608429848383
 30
0.0
 10
6248.521546798661
 20
5244.915881070466
 30
0.0
 10
6248.519959051368
 20
5242.940574352428
 30
0.0
 10
6248.519339838524
 20
5239.944905500525
 30
0.0
 10
6248.518892758154
 20
5236.622969579411
 30
0.0
 10
6248.5188043002
 20
5234.067660981626
 30
0.0
 10
6248.518755245557
 20
5231.162385764792
 30
0.0
 10
6248.518754022861
 20
5228.593557109586
 30
0.0
 10
6248.518757114476
 20
5226.54174735712
 30
0.0
 10
6248.518758143091
 20
5225.859086745778
 30
0.0
  0
LINE
  5
E2
330
1F
100
AcDbEntity
  8
0
  6
Continuous
 62
     7
370
    25
100
AcDbLine
 10
6248.6226336705
 20
5225.8590867458
 30
0.0
 11
6248.5187581431
 21
5225.8590867458
 31
0.0
  0
SPLINE
  5
E3
330
1F
100
AcDbEntity
  8
0
  6
Continuous
 62
     7
370
    18
100
AcDbSpline
210
0.0
220
0.0
230
1.0
 70
     8
 71
     3
 72
    26
 73
    22
 74
     0
 42
0.000000001
 43
0.00000001
 40
0.0
 40
0.0
 40
0.0
 40
0.0
 40
0.0053843120522369
 40
0.0160804596389661
 40
0.026997982516693
 40
0.0695988929280159
 40
0.1124607437984591
 40
0.1791143663776951
 40
0.2462285743710825
 40
0.3148073215896515
 40
0.3839033563347215
 40
0.4505604522116505
 40
0.5177176225075816
 40
0.586501154780283
 40
0.6558685084874528
 40
0.7189319375857398
 40
0.7824716112054666
 40
0.8475552798296573
 40
0.9131899547821561
 40
0.9628111980688678
 40
1.0
 40
1.0
 40
1.0
 40
1.0
 10
6258.093040801178
 20
5335.504092148537
 30
0.0
 10
6258.097661259096
 20
5335.528083090799
 30
0.0
 10
6258.11146043833
 20
5335.599732983113
 30
0.0
 10
6258.135708512511
 20
5335.7597116823
 30
0.0
 10
6258.196640430247
 20
5336.147922927546
 30
0.0
 10
6258.306009146061
 20
5336.764025258673
 30
0.0
 10
6258.530676348304
 20
5337.730814545128
 30
0.0
 10
6258.870262887029
 20
5338.846453190873
 30
0.0
 10
6259.368856383194
 20
5340.093822303685
 30
0.0
 10
6259.98377798741
 20
5341.315474391777
 30
0.0
 10
6260.705852967151
 20
5342.482242776138
 30
0.0
 10
6261.525130073089
 20
5343.579985450094
 30
0.0
 10
6262.439155048195
 20
5344.606888003701
 30
0.0
 10
6263.458506265314
 20
5345.566950788738
 30
0.0
 10
6264.543404226843
 20
5346.418264838796
 30
0.0
 10
6265.672461824754
 20
5347.155292294289
 30
0.0
 10
6266.83746985887
 20
5347.783167450293
 30
0.0
 10
6268.071854051123
 20
5348.318392308972
 30
0.0
 10
6269.260367504087
 20
5348.710325286064
 30
0.0
 10
6270.28717485274
 20
5348.971193545562
 30
0.0
 10
6270.88248808258
 20
5349.068427531245
 30
0.0
 10
6271.137516008623
 20
5349.110081874651
 30
0.0
  0
LWPOLYLINE
  5
E4
330
1F
100
AcDbEntity
  8
0
  6
Continuous
 62
     8
370
    25
100
AcDbPolyline
 90
        3
 70
   128
 43
0.0
 10
6297.4019694296
 20
5320.7788772827
 10
6297.498410401
 20
5320.0155379087
 10
6297.5328859431
 20
5318.3865509108
  0
LWPOLYLINE
  5
E5
330
1F
100
AcDbEntity
  8
0
  6
Continuous
 62
     8
370
    25
100
AcDbPolyline
 90
        3
 70
   128
 43
0.0
 10
6250.5046247291
 20
5318.3865509108
 10
6250.5391002712
 20
5320.0155379087
 10
6250.6218611162
 20
5320.6915790856
  0
ARC
  5
E6
330
1F
100
AcDbEntity
  8
0
  6
Continuous
 62
     8
370
    25
100
AcDbCircle
 10
6299.3512671964
 20
5264.9373341498
 30
0.0
 40
0.1256463828461499
100
AcDbArc
 50
300.4150654498
 51
352.0105634922
  0
LWPOLYLINE
  5
E7
330
1F
100
AcDbEntity
  8
0
  6
Continuous
 62
     8
370
    25
100
AcDbPolyline
 90
        3
 70
   128
 43
0.0
 10
6297.5411633816
 20
5319.6441946735
 10
6297.5624231598
 20
5319.2592905001
 10
6297.5328859431
 20
5318.3865509108
  0
ARC
  5
E8
330
1F
100
AcDbEntity
  8
0
  6
Continuous
 62
     8
370
    25
100
AcDbCircle
 10
6248.6858555622
 20
5264.936942031
 30
0.0
 40
0.1251119157542663
100
AcDbArc
 50
187.4894493226
 51
239.6472234079
  0
LWPOLYLINE
  5
E9
330
1F
100
AcDbEntity
  8
0
  6
Continuous
 62
     8
370
    25
100
AcDbPolyline
 90
        3
 70
   128
 43
0.0
 10
6250.5046247291
 20
5318.3865509108
 10
6250.4750875124
 20
5319.2592905001
 10
6250.4969163357
 20
5319.6510288886
  0
SPLINE
  5
EA
330
1F
100
AcDbEntity
  8
0
  6
Continuous
 62
     8
370
    25
100
AcDbSpline
210
0.0
220
0.0
230
1.0
 70
     8
 71
     3
 72
    11
 73
     7
 74
     0
 42
0.000000001
 43
0.00000001
 40
0.0
 40
0.0
 40
0.0
 40
0.0
 40
0.0628722050208463
 40
0.3850323835398948
 40
0.5762782318500665
 40
1.0
 40
1.0
 40
1.0
 40
1.0
 10
6299.515511220489
 20
5245.561280168658
 30
0.0
 10
6299.515252534291
 20
5245.966825835069
 30
0.0
 10
6299.513668327664
 20
5248.450406847073
 30
0.0
 10
6299.50707200809
 20
5252.162982961735
 30
0.0
 10
6299.48780626292
 20
5258.190727758176
 30
0.0
 10
6299.444627681706
 20
5262.12097841424
 30
0.0
 10
6299.41487700169
 20
5264.828979149052
 30
0.0
  0
SPLINE
  5
EB
330
1F
100
AcDbEntity
  8
0
  6
Continuous
 62
     8
370
    25
100
AcDbSpline
210
0.0
220
0.0
230
1.0
 70
     8
 71
     3
 72
    11
 73
     7
 74
     0
 42
0.000000001
 43
0.00000001
 40
0.0
 40
0.0
 40
0.0
 40
0.0
 40
0.4210680106713385
 40
0.6164719483289958
 40
0.9172229120316796
 40
1.0
 40
1.0
 40
1.0
 40
1.0
 10
6248.622633670511
 20
5264.828979149052
 30
0.0
 10
6248.593072109295
 20
5262.14456719276
 30
0.0
 10
6248.549791991176
 20
5258.214407154781
 30
0.0
 10
6248.530953133812
 20
5252.32910179489
 30
0.0
 10
6248.524044846147
 20
5248.608876594793
 30
0.0
 10
6248.522448095519
 20
5246.141060143781
 30
0.0
 10
6248.522103467879
 20
5245.608429848383
 30
0.0
  0
SPLINE
  5
EC
330
1F
100
AcDbEntity
  8
0
  6
Continuous
 62
     7
370
    25
100
AcDbSpline
210
0.0
220
0.0
230
1.0
 70
     8
 71
     3
 72
    17
 73
    13
 74
     0
 42
0.000000001
 43
0.00000001
 40
0.0
 40
0.0
 40
0.0
 40
0.0
 40
0.0483539117713288
 40
0.1572534923061001
 40
0.2720255099275153
 40
0.3930940501887961
 40
0.5214791537817953
 40
0.6067786055410013
 40
0.6962600724087831
 40
0.7907684928530646
 40
0.8915472584359668
 40
1.0
 40
1.0
 40
1.0
 40
1.0
 10
6467.752396485396
 20
5297.844262035882
 30
0.0
 10
6467.296215662054
 20
5296.756897036653
 30
0.0
 10
6465.812653630242
 20
5293.220638287848
 30
0.0
 10
6463.816373676762
 20
5286.883793194193
 30
0.0
 10
6461.760896194947
 20
5278.730710626295
 30
0.0
 10
6460.197614589705
 20
5269.981772220485
 30
0.0
 10
6459.232982301525
 20
5261.873815810738
 30
0.0
 10
6458.647490275057
 20
5254.504808205918
 30
0.0
 10
6458.290712277058
 20
5247.948448890505
 30
0.0
 10
6458.057143627411
 20
5241.009142650929
 30
0.0
 10
6457.929311978273
 20
5233.604512161791
 30
0.0
 10
6457.916870360373
 20
5228.503261344786
 30
0.0
 10
6457.910421391052
 20
5225.859086745778
 30
0.0
  0
SPLINE
  5
ED
330
1F
100
AcDbEntity
  8
0
  6
Continuous
 62
     7
370
    25
100
AcDbSpline
210
0.0
220
0.0
230
1.0
 70
     8
 71
     3
 72
    10
 73
     6
 74
     0
 42
0.000000001
 43
0.00000001
 40
0.0
 40
0.0
 40
0.0
 40
0.0
 40
0.0316222219120411
 40
0.6286192624539093
 40
0.9999999999999999
 40
0.9999999999999999
 40
0.9999999999999999
 40
0.9999999999999999
 10
6468.236393840571
 20
5299.026576794548
 30
0.0
 10
6468.229890291505
 20
5299.014071428357
 30
0.0
 10
6468.100606010707
 20
5298.765476813655
 30
0.0
 10
6467.900526796038
 20
5298.361374767019
 30
0.0
 10
6467.74869922382
 20
5297.954768488246
 30
0.0
 10
6467.690472117597
 20
5297.798831680195
 30
0.0
  0
LINE
  5
EE
330
1F
100
AcDbEntity
  8
0
  6
Continuous
 62
     7
370
    25
100
AcDbLine
 10
6577.76700855
 20
5329.1508247131
 30
0.0
 11
6578.26161419
 21
5323.497456379
 31
0.0
  0
LINE
  5
EF
330
1F
100
AcDbEntity
  8
0
  6
Continuous
 62
     7
370
    25
100
AcDbLine
 10
6602.1702869442
 20
5325.5891942049
 30
0.0
 11
6601.6262899178
 21
5331.8071086685
 31
0.0
  0
LINE
  5
F0
330
1F
100
AcDbEntity
  8
0
  6
Continuous
 62
     7
370
    25
100
AcDbLine
 10
6578.26161419
 20
5323.497456379
 30
0.0
 11
6579.3449646308
 21
5322.5884174236
 31
0.0
  0
LINE
  5
F1
330
1F
100
AcDbEntity
  8
0
  6
Continuous
 62
     7
370
    25
100
AcDbLine
 10
6601.2612479888
 20
5324.5058437641
 30
0.0
 11
6602.1702869442
 21
5325.5891942049
 31
0.0
  0
SPLINE
  5
F2
330
1F
100
AcDbEntity
  8
0
  6
Continuous
 62
     7
370
    25
100
AcDbSpline
210
0.0
220
0.0
230
1.0
 70
     8
 71
     3
 72
    24
 73
    20
 74
     0
 42
0.000000001
 43
0.00000001
 40
0.0
 40
0.0
 40
0.0
 40
0.0
 40
0.0949733704470667
 40
0.2389956082398728
 40
0.3746611205133212
 40
0.5007200495074728
 40
0.615486232826156
 40
0.7167479789918857
 40
0.8017500029190079
 40
0.8674511742681436
 40
0.9115041089627642
 40
0.9342503293609016
 40
0.9390071385626495
 40
0.9410648255390283
 40
0.9425404878108704
 40
0.9445862520062999
 40
0.9485189403697428
 40
0.9597558501733626
 40
0.9999999999999999
 40
0.9999999999999999
 40
0.9999999999999999
 40
0.9999999999999999
 10
6600.4951335817
 20
5347.058985598812
 30
0.0
 10
6600.316124336249
 20
5347.205550270974
 30
0.0
 10
6599.865656765226
 20
5347.574372739889
 30
0.0
 10
6599.08365257131
 20
5348.049767847297
 30
0.0
 10
6598.198261069437
 20
5348.489381185732
 30
0.0
 10
6597.339436917819
 20
5348.813593706065
 30
0.0
 10
6596.536942042929
 20
5349.039218865276
 30
0.0
 10
6595.817449390361
 20
5349.181279049964
 30
0.0
 10
6595.208510508546
 20
5349.258987890238
 30
0.0
 10
6594.735914281014
 20
5349.293068741398
 30
0.0
 10
6594.412610430073
 20
5349.303332861951
 30
0.0
 10
6594.239751896566
 20
5349.304641755441
 30
0.0
 10
6594.166878743216
 20
5349.304447237165
 30
0.0
 10
6594.15060058827
 20
5349.304366460594
 30
0.0
 10
6594.143784406087
 20
5349.30432738114
 30
0.0
 10
6594.138420958391
 20
5349.304293883309
 30
0.0
 10
6594.132712277572
 20
5349.304255281107
 30
0.0
 10
6594.126504058007
 20
5349.304210698394
 30
0.0
 10
6594.116399209412
 20
5349.304134517027
 30
0.0
 10
6594.108499973388
 20
5349.304074963973
 30
0.0
  0
LINE
  5
F3
330
1F
100
AcDbEntity
  8
0
  6
Continuous
 62
     7
370
    18
100
AcDbLine
 10
6485.7097700698
 20
5264.8289791491
 30
0.0
 11
6485.7097700698
 21
5225.8693617642
 31
0.0
  0
SPLINE
  5
F4
330
1F
100
AcDbEntity
  8
0
  6
Continuous
 62
     7
370
    18
100
AcDbSpline
210
0.0
220
0.0
230
1.0
 70
     8
 71
     3
 72
    17
 73
    13
 74
     0
 42
0.000000001
 43
0.00000001
 40
0.0
 40
0.0
 40
0.0
 40
0.0
 40
0.0921927394932901
 40
0.1849829061638551
 40
0.2971142944205253
 40
0.4092585493908596
 40
0.5248538690061929
 40
0.6404621161073674
 40
0.729913295988089
 40
0.8193753451608056
 40
0.9096831140915789
 40
1.0
 40
1.0
 40
1.0
 40
1.0
 10
6506.49621030827
 20
5318.38655091076
 30
0.0
 10
6505.292644580768
 20
5317.046601996166
 30
0.0
 10
6502.877713781921
 20
5314.358021033122
 30
0.0
 10
6499.452408458224
 20
5309.661739933576
 30
0.0
 10
6496.201541844742
 20
5304.379822434675
 30
0.0
 10
6493.232661798364
 20
5298.427378287987
 30
0.0
 10
6490.758600752963
 20
5292.178703831893
 30
0.0
 10
6488.942271305671
 20
5286.169648068164
 30
0.0
 10
6487.66434973677
 20
5280.54991544078
 30
0.0
 10
6486.775231134937
 20
5275.357782390303
 30
0.0
 10
6486.117410636107
 20
5270.113719385858
 30
0.0
 10
6485.845654830854
 20
5266.590618503823
 30
0.0
 10
6485.70977006983
 20
5264.828979149052
 30
0.0
  0
SPLINE
  5
F5
330
1F
100
AcDbEntity
  8
0
  6
Continuous
 62
     7
370
    18
100
AcDbSpline
210
0.0
220
0.0
230
1.0
 70
     8
 71
     3
 72
    18
 73
    14
 74
     0
 42
0.000000001
 43
0.00000001
 40
0.0
 40
0.0
 40
0.0
 40
0.0
 40
0.0875308265268764
 40
0.262673193586087
 40
0.3503457172783588
 40
0.438572766202817
 40
0.5268656879160272
 40
0.6154745148174555
 40
0.7042722401181728
 40
0.7785034989512718
 40
0.8527254617081348
 40
0.9262825437323482
 40
0.9999999999999999
 40
0.9999999999999999
 40
0.9999999999999999
 40
0.9999999999999999
 10
6584.096424023116
 20
5334.078507278989
 30
0.0
 10
6581.767444878508
 20
5333.991235710218
 30
0.0
 10
6574.778359844315
 20
5333.729340528966
 30
0.0
 10
6565.468950527051
 20
5333.08348444956
 30
0.0
 10
6556.16789656597
 20
5332.151830719347
 30
0.0
 10
6549.184979094765
 20
5331.293263901797
 30
0.0
 10
6542.203585444852
 20
5330.235431627188
 30
0.0
 10
6535.249755258989
 20
5328.918452965057
 30
0.0
 10
6528.72914217675
 20
5327.357208388898
 30
0.0
 10
6522.673350039719
 20
5325.540080277318
 30
0.0
 10
6517.117737388963
 20
5323.503207524644
 30
0.0
 10
6511.705610954502
 20
5321.136896565783
 30
0.0
 10
6508.233937347138
 20
5319.303998105845
 30
0.0
 10
6506.49621030827
 20
5318.38655091076
 30
0.0
  0
SPLINE
  5
F6
330
1F
100
AcDbEntity
  8
0
  6
Continuous
 62
     7
370
    18
100
AcDbSpline
210
0.0
220
0.0
230
1.0
 70
     8
 71
     3
 72
    22
 73
    18
 74
     0
 42
0.000000001
 43
0.00000001
 40
0.0
 40
0.0
 40
0.0
 40
0.0
 40
0.008115766215018
 40
0.0397633268687541
 40
0.1033442342972869
 40
0.1674004338395801
 40
0.2318842177528437
 40
0.2642408583697284
 40
0.3148525303693314
 40
0.4163841920473461
 40
0.5182305185944849
 40
0.5956708357257655
 40
0.6731165602077112
 40
0.7546340587664249
 40
0.8363249955297031
 40
0.9180914821775628
 40
1.0
 40
1.0
 40
1.0
 40
1.0
 10
6520.72999816725
 20
5307.192697243682
 30
0.0
 10
6520.847813096738
 20
5307.342926787202
 30
0.0
 10
6521.425049235277
 20
5308.078978847609
 30
0.0
 10
6522.989661356242
 20
5309.940528347774
 30
0.0
 10
6525.611563911229
 20
5312.624673958132
 30
0.0
 10
6529.080037172098
 20
5315.526791960228
 30
0.0
 10
6532.189193102121
 20
5317.685189937694
 30
0.0
 10
6535.140452194823
 20
5319.499369880101
 30
0.0
 10
6538.92930313568
 20
5321.606258843209
 30
0.0
 10
6544.33775501712
 20
5324.137930277621
 30
0.0
 10
6550.502088455372
 20
5326.488499284531
 30
0.0
 10
6556.240358187766
 20
5328.335376419375
 30
0.0
 10
6561.587735536055
 20
5329.821544310618
 30
0.0
 10
6567.081864505445
 20
5331.13664051178
 30
0.0
 10
6572.715841741053
 20
5332.285841949414
 30
0.0
 10
6578.38898661754
 20
5333.27787252629
 30
0.0
 10
6582.192844605041
 20
5333.811474681286
 30
0.0
 10
6584.096424023116
 20
5334.078507278989
 30
0.0
  0
SPLINE
  5
F7
330
1F
100
AcDbEntity
  8
0
  6
Continuous
 62
     7
370
    18
100
AcDbSpline
210
0.0
220
0.0
230
1.0
 70
     8
 71
     3
 72
    28
 73
    24
 74
     0
 42
0.000000001
 43
0.00000001
 40
0.0
 40
0.0
 40
0.0
 40
0.0
 40
0.0067718712491241
 40
0.0314555286033951
 40
0.0920735506121249
 40
0.1748102763738239
 40
0.2648196800673525
 40
0.3098075096892898
 40
0.3548270373623126
 40
0.3979029819711716
 40
0.4410283895304241
 40
0.4818002428454972
 40
0.5226429651209715
 40
0.5665315084275112
 40
0.6105572044108757
 40
0.6550553720302387
 40
0.6997340398537398
 40
0.7508956965495441
 40
0.8023412456062354
 40
0.8547502640720072
 40
0.9075279708491324
 40
0.9536208327693847
 40
1.0
 40
1.0
 40
1.0
 40
1.0
 10
6485.709770069828
 20
5225.869368688085
 30
0.0
 10
6485.720444498063
 20
5226.078772141359
 30
0.0
 10
6485.77002751144
 20
5227.051456953547
 30
0.0
 10
6485.925468668263
 20
5229.89806597228
 30
0.0
 10
6486.258087443011
 20
5235.090511069639
 30
0.0
 10
6486.863997903689
 20
5242.291232721703
 30
0.0
 10
6487.644800969422
 20
5248.989266589989
 30
0.0
 10
6488.48269436688
 20
5254.499820630309
 30
0.0
 10
6489.211888596107
 20
5258.555517084812
 30
0.0
 10
6490.052895368112
 20
5262.530494614411
 30
0.0
 10
6490.998638370914
 20
5266.346494642012
 30
0.0
 10
6492.070910291531
 20
5270.056784180241
 30
0.0
 10
6493.306743559338
 20
5273.740653194319
 30
0.0
 10
6494.759629318131
 20
5277.452975237685
 30
0.0
 10
6496.467921255818
 20
5281.179439688392
 30
0.0
 10
6498.412906954662
 20
5284.815276241347
 30
0.0
 10
6500.702978082082
 20
5288.505784740034
 30
0.0
 10
6503.367308690355
 20
5292.20427542242
 30
0.0
 10
6506.450021568789
 20
5295.878413501551
 30
0.0
 10
6509.848222232484
 20
5299.333269520854
 30
0.0
 10
6513.403090394013
 20
5302.373710171963
 30
0.0
 10
6517.030220609051
 20
5305.024053986902
 30
0.0
 10
6519.494196052759
 20
5306.468325607781
 30
0.0
 10
6520.72999816725
 20
5307.192697243682
 30
0.0
  0
LWPOLYLINE
  5
F8
330
1F
100
AcDbEntity
  8
0
  6
Continuous
 62
     7
370
    18
100
AcDbPolyline
 90
       14
 70
   128
 43
0.0
 10
6506.4962103083
 20
5318.3865509108
 10
6505.5960669815
 20
5320.0155379087
 10
6504.6889563772
 20
5321.6194381796
 10
6503.7888481808
 20
5323.1735513369
 10
6502.9096042396
 20
5324.6539437258
 10
6502.0647650867
 20
5326.037817006
 10
6501.2673414151
 20
5327.3038592508
 10
6500.5296137094
 20
5328.4325731554
 10
6499.8629431245
 20
5329.4065762988
 10
6499.2775965215
 20
5330.2108688368
 10
6498.7825883556
 20
5330.8330645028
 10
6498.385541852
 20
5331.2635813585
 10
6498.0925716067
 20
5331.4957893579
 10
6497.9081894203
 20
5331.5261124509
  0
SPLINE
  5
F9
330
1F
100
AcDbEntity
  8
0
  6
Continuous
 62
     7
370
    25
100
AcDbSpline
210
0.0
220
0.0
230
1.0
 70
     8
 71
     3
 72
    20
 73
    16
 74
     0
 42
0.000000001
 43
0.00000001
 40
0.0
 40
0.0
 40
0.0
 40
0.0
 40
0.0685125188762374
 40
0.1370229902819872
 40
0.2060513400157215
 40
0.2750872324654098
 40
0.352759485219772
 40
0.4306221105622111
 40
0.5086721134118113
 40
0.5873074861857775
 40
0.6659917092647584
 40
0.7450942012906727
 40
0.8243042812102395
 40
0.9035439433662293
 40
1.0
 40
1.0
 40
1.0
 40
1.0
 10
6497.908189420334
 20
5331.526112450928
 30
0.0
 10
6499.905577719365
 20
5332.582443110408
 30
0.0
 10
6503.90029462624
 20
5334.695072861331
 30
0.0
 10
6510.13095846163
 20
5337.412555697863
 30
0.0
 10
6516.524930251989
 20
5339.762620966035
 30
0.0
 10
6523.336965746815
 20
5341.809782599209
 30
0.0
 10
6530.533257060702
 20
5343.542456981658
 30
0.0
 10
6538.09257266023
 20
5344.986382888237
 30
0.0
 10
6545.729941469192
 20
5346.150055332608
 30
0.0
 10
6553.423170659155
 20
5347.093487191964
 30
0.0
 10
6561.170273186142
 20
5347.859950916773
 30
0.0
 10
6568.951381634407
 20
5348.452238948537
 30
0.0
 10
6576.761015177805
 20
5348.88010617222
 30
0.0
 10
6585.147982872334
 20
5349.189229405298
 30
0.0
 10
6590.931701254275
 20
5349.263359840558
 30
0.0
 10
6594.106933249939
 20
5349.304057072744
 30
0.0
  0
SPLINE
  5
FA
330
1F
100
AcDbEntity
  8
0
  6
Continuous
 62
     7
370
    18
100
AcDbSpline
210
0.0
220
0.0
230
1.0
 70
     8
 71
     3
 72
    28
 73
    24
 74
     0
 42
0.000000001
 43
0.00000001
 40
0.0
 40
0.0
 40
0.0
 40
0.0
 40
0.0048321099095121
 40
0.0144312862287824
 40
0.0242291341196514
 40
0.0624609972352507
 40
0.1009270393817223
 40
0.1607448261380085
 40
0.2209759617719796
 40
0.2825214369973809
 40
0.344531147980038
 40
0.4043520518209281
 40
0.4646217436466362
 40
0.5263510016617036
 40
0.5886042057838151
 40
0.6452000007000941
 40
0.7022231976408239
 40
0.7606320411579267
 40
0.819535381114573
 40
0.864067588587284
 40
0.9088253085191056
 40
0.9542904468012722
 40
1.0
 40
1.0
 40
1.0
 40
1.0
 10
6589.703786803373
 20
5335.504092148537
 30
0.0
 10
6589.732286570315
 20
5335.528083090799
 30
0.0
 10
6589.817402244814
 20
5335.599732983113
 30
0.0
 10
6589.917541445441
 20
5335.759711682299
 30
0.0
 10
6590.126330764208
 20
5336.147922927548
 30
0.0
 10
6590.372487664329
 20
5336.764025258632
 30
0.0
 10
6590.733794907521
 20
5337.730814545311
 30
0.0
 10
6591.121624069098
 20
5338.846453189758
 30
0.0
 10
6591.540778927007
 20
5340.093822307855
 30
0.0
 10
6591.939063751143
 20
5341.315474375808
 30
0.0
 10
6592.309854559016
 20
5342.482242835292
 30
0.0
 10
6592.650003062677
 20
5343.579985237378
 30
0.0
 10
6592.959988057591
 20
5344.606888813351
 30
0.0
 10
6593.241361807663
 20
5345.566947674865
 30
0.0
 10
6593.482291711697
 20
5346.418276109588
 30
0.0
 10
6593.682487400341
 20
5347.155254355399
 30
0.0
 10
6593.844716180918
 20
5347.783312155611
 30
0.0
 10
6593.973374404096
 20
5348.31783565612
 30
0.0
 10
6594.058257313442
 20
5348.712204359707
 30
0.0
 10
6594.107926886965
 20
5348.987750563119
 30
0.0
 10
6594.130630351687
 20
5349.16774486144
 30
0.0
 10
6594.132791544711
 20
5349.28266788418
 30
0.0
 10
6594.115568072035
 20
5349.296914612669
 30
0.0
 10
6594.106933249939
 20
5349.304057072744
 30
0.0
  0
LINE
  5
FB
330
1F
100
AcDbEntity
  8
0
  6
Continuous
 62
     7
370
    18
100
AcDbLine
 10
6589.7073420773
 20
5334.9516201435
 30
0.0
 11
6589.7037868034
 21
5335.5040921485
 31
0.0
  0
LINE
  5
FC
330
1F
100
AcDbEntity
  8
0
  6
Continuous
 62
     7
370
    18
100
AcDbLine
 10
6584.0964240231
 20
5334.078507279
 30
0.0
 11
6589.7073420773
 21
5334.9516201435
 31
0.0
  0
LWPOLYLINE
  5
FD
330
1F
100
AcDbEntity
  8
0
  6
Continuous
 62
     7
370
    18
100
AcDbPolyline
 90
        9
 70
   128
 43
0.0
 10
6485.7097700698
 20
5264.8289791491
 10
6485.3738550696
 20
5264.8519497765
 10
6485.0374246365
 20
5264.8749087579
 10
6484.700649339
 20
5264.8978444533
 10
6484.3636999206
 20
5264.9207452343
 10
6484.0267472128
 20
5264.9435994904
 10
6483.689962049
 20
5264.9663956345
 10
6483.3535151776
 20
5264.9891221092
 10
6483.0175771754
 20
5265.0117673922
  0
SPLINE
  5
FE
330
1F
100
AcDbEntity
  8
0
  6
Continuous
 62
     7
370
    18
100
AcDbSpline
210
0.0
220
0.0
230
1.0
 70
     8
 71
     3
 72
    18
 73
    14
 74
     0
 42
0.000000001
 43
0.00000001
 40
0.0
 40
0.0
 40
0.0
 40
0.0
 40
0.0860672610876424
 40
0.1722253751852527
 40
0.2587895367365928
 40
0.3455673646669958
 40
0.402020762230382
 40
0.5155389247849275
 40
0.630483352048089
 40
0.7469549452007485
 40
0.8056064701972048
 40
0.878270663617909
 40
1.0
 40
1.0
 40
1.0
 40
1.0
 10
6483.017577175353
 20
5265.011767392199
 30
0.0
 10
6482.982636483107
 20
5266.834219513208
 30
0.0
 10
6482.912718215054
 20
5270.481047544349
 30
0.0
 10
6483.023501583899
 20
5275.960871107918
 30
0.0
 10
6483.353269221184
 20
5281.445425927579
 30
0.0
 10
6483.891148828331
 20
5286.280266345791
 30
0.0
 10
6484.744245094851
 20
5291.643404445507
 30
0.0
 10
6486.04192827122
 20
5297.530753658381
 30
0.0
 10
6488.205762980468
 20
5304.492123238937
 30
0.0
 10
6490.5421775123
 20
5310.154858462928
 30
0.0
 10
6492.880239813202
 20
5314.821016268595
 30
0.0
 10
6495.501285304686
 20
5319.463971954525
 30
0.0
 10
6497.893971550961
 20
5322.77818355335
 30
0.0
 10
6499.392273007937
 20
5324.853544698159
 30
0.0
  0
ARC
  5
FF
330
1F
100
AcDbEntity
  8
0
  6
Continuous
 62
     7
370
    18
100
AcDbCircle
 10
6362.5630320976
 20
5167.4124911487
 30
0.0
 40
208.5903317770699
100
AcDbArc
 50
46.3676713261
 51
49.0066708303
  0
ARC
  5
100
330
1F
100
AcDbEntity
  8
0
  6
Continuous
 62
     7
370
    18
100
AcDbCircle
 10
6573.0449088524
 20
5331.6279095451
 30
0.0
 40
11.31995657331038
100
AcDbArc
 50
352.3113940077
 51
12.5026476912
  0
SPLINE
  5
101
330
1F
100
AcDbEntity
  8
0
  6
Continuous
 62
     7
370
    25
100
AcDbSpline
210
0.0
220
0.0
230
1.0
 70
     8
 71
     3
 72
    21
 73
    17
 74
     0
 42
0.000000001
 43
0.00000001
 40
0.0
 40
0.0
 40
0.0
 40
0.0
 40
0.0777501707825574
 40
0.1555549360531105
 40
0.2335565800222387
 40
0.3116419292842564
 40
0.3592498609590952
 40
0.4545947070977988
 40
0.5502142397351505
 40
0.6461954557458112
 40
0.6943653596019111
 40
0.761036566442637
 40
0.82683479737718
 40
0.8915695757361739
 40
0.9237857704584547
 40
1.0
 40
1.0
 40
1.0
 40
1.0
 10
6584.263097035231
 20
5330.113422596723
 30
0.0
 10
6582.407667757921
 20
5329.853253108694
 30
0.0
 10
6578.695506360999
 20
5329.33273144725
 30
0.0
 10
6573.150347832439
 20
5328.364688134918
 30
0.0
 10
6567.626820076739
 20
5327.239796899498
 30
0.0
 10
6562.851550786585
 20
5326.097820597808
 30
0.0
 10
6557.710294995366
 20
5324.702756869662
 30
0.0
 10
6552.218383189706
 20
5322.989857211995
 30
0.0
 10
6545.745841772808
 20
5320.539709202081
 30
0.0
 10
6540.497704021122
 20
5318.098933100639
 30
0.0
 10
6536.051155503539
 20
5315.631968092465
 30
0.0
 10
6532.383957969811
 20
5313.270591293112
 30
0.0
 10
6528.641207353493
 20
5310.31907009914
 30
0.0
 10
6525.850010532414
 20
5307.542820714933
 30
0.0
 10
6523.139354989991
 20
5304.354206207522
 30
0.0
 10
6521.692444877964
 20
5302.165720450925
 30
0.0
 10
6520.675431985569
 20
5300.627464403933
 30
0.0
  0
SPLINE
  5
102
330
1F
100
AcDbEntity
  8
0
  6
Continuous
 62
     7
370
    18
100
AcDbSpline
210
0.0
220
0.0
230
1.0
 70
     8
 71
     3
 72
    18
 73
    14
 74
     0
 42
0.000000001
 43
0.00000001
 40
0.0
 40
0.0
 40
0.0
 40
0.0
 40
0.2742392079918653
 40
0.4130235444021639
 40
0.5514389204618668
 40
0.6365270926588971
 40
0.6792147596172721
 40
0.7127787288275124
 40
0.7394529011476334
 40
0.7661350760818628
 40
0.8035733560776138
 40
0.8704909434831631
 40
0.9999999999999999
 40
0.9999999999999999
 40
0.9999999999999999
 40
0.9999999999999999
 10
6520.675431985569
 20
5300.627464403934
 30
0.0
 10
6521.210422202865
 20
5301.49799614159
 30
0.0
 10
6522.016155115332
 20
5302.809078194497
 30
0.0
 10
6522.994676650615
 20
5304.578961567155
 30
0.0
 10
6523.526116410799
 20
5305.773137524522
 30
0.0
 10
6523.776380700102
 20
5306.679102231094
 30
0.0
 10
6523.783768146242
 20
5307.226622415194
 30
0.0
 10
6523.681725698481
 20
5307.552595938964
 30
0.0
 10
6523.490658212718
 20
5307.769391661319
 30
0.0
 10
6523.206413912369
 20
5307.904282544171
 30
0.0
 10
6522.728047077991
 20
5307.946433230285
 30
0.0
 10
6521.852524570359
 20
5307.764102327134
 30
0.0
 10
6521.17602888799
 20
5307.419742434335
 30
0.0
 10
6520.72999816725
 20
5307.192697243682
 30
0.0
  0
SPLINE
  5
103
330
1F
100
AcDbEntity
  8
0
  6
Continuous
 62
     7
370
    18
100
AcDbSpline
210
0.0
220
0.0
230
1.0
 70
     8
 71
     3
 72
    17
 73
    13
 74
     0
 42
0.000000001
 43
0.00000001
 40
0.0
 40
0.0
 40
0.0
 40
0.0
 40
0.2082072684386535
 40
0.304829474521209
 40
0.4535430672089824
 40
0.5477044675809816
 40
0.646299033609291
 40
0.7245483419460533
 40
0.8027974616945226
 40
0.8424865172361119
 40
0.9475934597206651
 40
1.0
 40
1.0
 40
1.0
 40
1.0
 10
6485.70977006983
 20
5264.828979149052
 30
0.0
 10
6485.318413093662
 20
5262.144546133775
 30
0.0
 10
6484.745440102422
 20
5258.214355264023
 30
0.0
 10
6484.213424298191
 20
5252.329205515676
 30
0.0
 10
6483.914226834385
 20
5247.916568928355
 30
0.0
 10
6483.704861320035
 20
5243.473217334428
 30
0.0
 10
6483.584400127528
 20
5239.944968734773
 30
0.0
 10
6483.50466508399
 20
5236.622954016552
 30
0.0
 10
6483.462226786077
 20
5234.067662856238
 30
0.0
 10
6483.429761341636
 20
5231.162384685831
 30
0.0
 10
6483.405658795417
 20
5228.593557274789
 30
0.0
 10
6483.418210198854
 20
5226.541747398362
 30
0.0
 10
6483.422386194572
 20
5225.859086745778
 30
0.0
  0
SPLINE
  5
104
330
1F
100
AcDbEntity
  8
0
  6
Continuous
 62
     7
370
    18
100
AcDbSpline
210
0.0
220
0.0
230
1.0
 70
     8
 71
     3
 72
    16
 73
    12
 74
     0
 42
0.000000001
 43
0.00000001
 40
0.0
 40
0.0
 40
0.0
 40
0.0
 40
0.0523035692235637
 40
0.0771135654907676
 40
0.1572060277915213
 40
0.1689082892375312
 40
0.2745646631643872
 40
0.2854172074132031
 40
0.4514672418444634
 40
0.6941669296982315
 40
1.0
 40
1.0
 40
1.0
 40
1.0
 10
6483.422386194572
 20
5225.859086745778
 30
0.0
 10
6483.416922055799
 20
5226.541737483132
 30
0.0
 10
6483.408866023879
 20
5227.548200963997
 30
0.0
 10
6483.409750440613
 20
5229.600065569912
 30
0.0
 10
6483.406912155099
 20
5231.121990048879
 30
0.0
 10
6483.402208931579
 20
5233.699123607873
 30
0.0
 10
6483.397714464062
 20
5235.372534691178
 30
0.0
 10
6483.384252533449
 20
5239.060478609233
 30
0.0
 10
6483.354794785667
 20
5244.537040800131
 30
0.0
 10
6483.267977184296
 20
5253.863633252477
 30
0.0
 10
6483.107211616464
 20
5261.021125469822
 30
0.0
 10
6483.017577175353
 20
5265.011767392198
 30
0.0
  0
LINE
  5
105
330
1F
100
AcDbEntity
  8
0
  6
Continuous
 62
     7
370
    25
100
AcDbLine
 10
6485.7097700698
 20
5225.8693617642
 30
0.0
 11
6485.7097700698
 21
5225.8590867458
 31
0.0
  0
LINE
  5
106
330
1F
100
AcDbEntity
  8
0
  6
Continuous
 62
     7
370
    25
100
AcDbLine
 10
6485.7097700698
 20
5225.8590867458
 30
0.0
 11
6483.4223861946
 21
5225.8590867458
 31
0.0
  0
LINE
  5
107
330
1F
100
AcDbEntity
  8
0
  6
Continuous
 62
     7
370
    25
100
AcDbLine
 10
6483.4223861946
 20
5225.8590867458
 30
0.0
 11
6457.9104214084
 21
5225.8590867458
 31
0.0
  0
SPLINE
  5
108
330
1F
100
AcDbEntity
  8
0
  6
Continuous
 62
     7
370
    25
100
AcDbSpline
210
0.0
220
0.0
230
1.0
 70
     8
 71
     3
 72
    21
 73
    17
 74
     0
 42
0.000000001
 43
0.00000001
 40
0.0
 40
0.0
 40
0.0
 40
0.0
 40
0.0073725326386574
 40
0.009722669856627
 40
0.0196502369342705
 40
0.0389411101550575
 40
0.0700879376474762
 40
0.1018931957267372
 40
0.1724302068803709
 40
0.2434175183397934
 40
0.3868793295244836
 40
0.5124450171418261
 40
0.6385615153170504
 40
0.7668732501370658
 40
0.8964407792575426
 40
1.0
 40
1.0
 40
1.0
 40
1.0
 10
6468.35392964772
 20
5299.250921220174
 30
0.0
 10
6468.353375481464
 20
5299.249892559893
 30
0.0
 10
6468.352644664009
 20
5299.248535994274
 30
0.0
 10
6468.396429174387
 20
5299.330156287737
 30
0.0
 10
6468.519151353766
 20
5299.558509951973
 30
0.0
 10
6468.8675389525
 20
5300.200225249762
 30
0.0
 10
6469.413871225837
 20
5301.183107961836
 30
0.0
 10
6470.36457409474
 20
5302.840591396718
 30
0.0
 10
6471.688602456145
 20
5305.033864405954
 30
0.0
 10
6474.008651428454
 20
5308.612233030251
 30
0.0
 10
6477.013300216388
 20
5312.789044365494
 30
0.0
 10
6480.811235016804
 20
5317.442384149223
 30
0.0
 10
6484.749337908438
 20
5321.689366695788
 30
0.0
 10
6489.048009787314
 20
5325.667841087221
 30
0.0
 10
6493.463005281057
 20
5328.989962830413
 30
0.0
 10
6496.540921860321
 20
5330.74603338225
 30
0.0
 10
6497.908189420334
 20
5331.526112450928
 30
0.0
  0
LWPOLYLINE
  5
109
330
1F
100
AcDbEntity
  8
0
  6
Continuous
 62
     7
370
    18
100
AcDbPolyline
 90
        9
 70
   128
 43
0.0
 10
6499.3922730079
 20
5324.8535446982
 10
6498.8476567618
 20
5326.2004524257
 10
6498.3961091139
 20
5327.4318535807
 10
6498.0443049273
 20
5328.5295453578
 10
6497.797444638
 20
5329.4773014694
 10
6497.6591773817
 20
5330.2611120048
 10
6497.631547051
 20
5330.8693905285
 10
6497.7149620828
 20
5331.2931453519
 10
6497.9081894203
 20
5331.5261124509
  0
ARC
  5
10A
330
1F
100
AcDbEntity
  8
0
  6
Continuous
 62
     7
370
    25
100
AcDbCircle
 10
6594.1796631377
 20
5339.3607449372
 30
0.0
 40
9.943578121639563
100
AcDbArc
 50
49.4380172336
 51
90.4190798041
  0
SPLINE
  5
10B
330
1F
100
AcDbEntity
  8
0
  6
Continuous
 62
     7
370
    25
100
AcDbSpline
210
0.0
220
0.0
230
1.0
 70
     8
 71
     3
 72
    14
 73
    10
 74
     0
 42
0.000000001
 43
0.00000001
 40
0.0
 40
0.0
 40
0.0
 40
0.0
 40
0.0880349751846699
 40
0.1953287358522676
 40
0.3148460854945593
 40
0.438197539509542
 40
0.6760187621011553
 40
0.855067785213322
 40
1.0
 40
1.0
 40
1.0
 40
1.0
 10
6600.645676445903
 20
5346.914910527123
 30
0.0
 10
6600.736678548333
 20
5346.812585998177
 30
0.0
 10
6600.938590636
 20
5346.585552130743
 30
0.0
 10
6601.421108988055
 20
5345.973531410304
 30
0.0
 10
6601.952263025056
 20
5345.17624258168
 30
0.0
 10
6602.635672297817
 20
5343.927167558437
 30
0.0
 10
6603.256901490839
 20
5342.334762779436
 30
0.0
 10
6603.697766665721
 20
5340.555541378453
 30
0.0
 10
6603.838857902198
 20
5339.661711441731
 30
0.0
 10
6603.901974721931
 20
5339.261858804549
 30
0.0
  0
SPLINE
  5
10C
330
1F
100
AcDbEntity
  8
0
  6
Continuous
 62
     7
370
    18
100
AcDbSpline
210
0.0
220
0.0
230
1.0
 70
     8
 71
     3
 72
    18
 73
    14
 74
     0
 42
0.000000001
 43
0.00000001
 40
0.0
 40
0.0
 40
0.0
 40
0.0
 40
0.0109232628141644
 40
0.1033115504802378
 40
0.1957097932191173
 40
0.301555868681422
 40
0.4095907119018933
 40
0.5411589531105111
 40
0.6764969753846628
 40
0.8426967279934828
 40
0.9602963433594023
 40
0.9909160169467193
 40
1.0
 40
1.0
 40
1.0
 40
1.0
 10
6603.901974721931
 20
5339.261858804549
 30
0.0
 10
6603.886813071238
 20
5339.258062593744
 30
0.0
 10
6603.743415107871
 20
5339.222158264532
 30
0.0
 10
6603.373972483108
 20
5339.112711801013
 30
0.0
 10
6602.602158842005
 20
5338.858375770908
 30
0.0
 10
6601.543867883131
 20
5338.492914490239
 30
0.0
 10
6600.08783066146
 20
5337.979227353893
 30
0.0
 10
6598.227340414056
 20
5337.318410681222
 30
0.0
 10
6595.790647563438
 20
5336.450621721865
 30
0.0
 10
6593.187093148452
 20
5335.555303969101
 30
0.0
 10
6591.131441447595
 20
5334.853141005477
 30
0.0
 10
6590.048285755905
 20
5334.656534512364
 30
0.0
 10
6589.770835169407
 20
5334.642443827715
 30
0.0
 10
6589.707355967764
 20
5334.639219954869
 30
0.0
  0
SPLINE
  5
10D
330
1F
100
AcDbEntity
  8
0
  6
Continuous
 62
     7
370
    18
100
AcDbSpline
210
0.0
220
0.0
230
1.0
 70
     8
 71
     3
 72
     9
 73
     5
 74
     0
 42
0.000000001
 43
0.00000001
 40
0.0
 40
0.0
 40
0.0
 40
0.0
 40
0.0077342522640466
 40
1.0
 40
1.0
 40
1.0
 40
1.0
 10
6589.707342077311
 20
5334.951620143519
 30
0.0
 10
6589.707346725368
 20
5334.950618257743
 30
0.0
 10
6589.707947695724
 20
5334.821079455405
 30
0.0
 10
6589.707650683159
 20
5334.691315806504
 30
0.0
 10
6589.707355967764
 20
5334.5625557824
 30
0.0
  0
SPLINE
  5
10E
330
1F
100
AcDbEntity
  8
0
  6
Continuous
 62
     7
370
    18
100
AcDbSpline
210
0.0
220
0.0
230
1.0
 70
     8
 71
     3
 72
    12
 73
     8
 74
     0
 42
0.000000001
 43
0.00000001
 40
0.0
 40
0.0
 40
0.0
 40
0.0
 40
0.0670997011379276
 40
0.3273456671178285
 40
0.587381838694328
 40
0.853228186088956
 40
1.0
 40
1.0
 40
1.0
 40
1.0
 10
6589.707355967764
 20
5334.5625557824
 30
0.0
 10
6589.911971424636
 20
5334.528550330601
 30
0.0
 10
6590.910187245225
 20
5334.362654847972
 30
0.0
 10
6592.543345268622
 20
5333.559361852656
 30
0.0
 10
6594.721974080704
 20
5332.791288546904
 30
0.0
 10
6596.500323586434
 20
5332.177532414653
 30
0.0
 10
6597.521750481638
 20
5331.942780735736
 30
0.0
 10
6597.885080776437
 20
5331.859277552978
 30
0.0
  0
ARC
  5
10F
330
1F
100
AcDbEntity
  8
0
  6
Continuous
 62
     7
370
    18
100
AcDbCircle
 10
6597.4789299769
 20
5331.8263449873
 30
0.0
 40
0.4074837736982356
100
AcDbArc
 50
313.030877648
 51
4.6356624092
  0
LINE
  5
110
330
1F
100
AcDbEntity
  8
0
  6
Continuous
 62
     7
370
    25
100
AcDbLine
 10
6597.7569938071
 20
5331.528480031
 30
0.0
 11
6592.0119392179
 21
5331.014984262
 31
0.0
  0
SPLINE
  5
111
330
1F
100
AcDbEntity
  8
0
  6
Continuous
 62
     7
370
    25
100
AcDbSpline
210
0.0
220
0.0
230
1.0
 70
     8
 71
     3
 72
     9
 73
     5
 74
     0
 42
0.000000001
 43
0.00000001
 40
0.0
 40
0.0
 40
0.0
 40
0.0
 40
0.4974319451484019
 40
1.0
 40
1.0
 40
1.0
 40
1.0
 10
6592.01193921794
 20
5331.01498426198
 30
0.0
 10
6591.616879702162
 20
5330.975101488585
 30
0.0
 10
6590.822681581934
 20
5330.894924142151
 30
0.0
 10
6590.017430919972
 20
5330.806863588405
 30
0.0
 10
6589.612737661121
 20
5330.762607167198
 30
0.0
  0
LINE
  5
112
330
1F
100
AcDbEntity
  8
0
  6
Continuous
 62
     7
370
    25
100
AcDbLine
 10
6589.6127376611
 20
5330.7626071672
 30
0.0
 11
6584.2630970352
 21
5330.1134225967
 31
0.0
  0
SPLINE
  5
113
330
1F
100
AcDbEntity
  8
0
  6
Continuous
 62
     7
370
    25
100
AcDbSpline
210
0.0
220
0.0
230
1.0
 70
     8
 71
     3
 72
    10
 73
     6
 74
     0
 42
0.000000001
 43
0.00000001
 40
0.0
 40
0.0
 40
0.0
 40
0.0
 40
0.4901870873466966
 40
0.9814565259577398
 40
1.0
 40
1.0
 40
1.0
 40
1.0
 10
6604.165691741344
 20
5331.96045210757
 30
0.0
 10
6604.17592739836
 20
5332.352865512136
 30
0.0
 10
6604.1964213131
 20
5333.138558784616
 30
0.0
 10
6604.20395938731
 20
5333.9183051075
 30
0.0
 10
6604.204057548812
 20
5334.312100328196
 30
0.0
 10
6604.20406111925
 20
5334.326423879585
 30
0.0
  0
SPLINE
  5
114
330
1F
100
AcDbEntity
  8
0
  6
Continuous
 62
     7
370
    25
100
AcDbSpline
210
0.0
220
0.0
230
1.0
 70
     8
 71
     3
 72
    12
 73
     8
 74
     0
 42
0.000000001
 43
0.00000001
 40
0.0
 40
0.0
 40
0.0
 40
0.0
 40
0.20117237479343
 40
0.4060172253077986
 40
0.6572647055057826
 40
0.9158057761874546
 40
1.0
 40
1.0
 40
1.0
 40
1.0
 10
6600.11875591862
 20
5331.704298843525
 30
0.0
 10
6600.571737587199
 20
5331.735445197332
 30
0.0
 10
6601.485970271386
 20
5331.798306493091
 30
0.0
 10
6602.648582962678
 20
5331.871480061357
 30
0.0
 10
6603.586470422433
 20
5331.927572957085
 30
0.0
 10
6604.035531870946
 20
5331.953091500339
 30
0.0
 10
6604.140023079914
 20
5331.95900053164
 30
0.0
 10
6604.165691741344
 20
5331.96045210757
 30
0.0
  0
SPLINE
  5
115
330
1F
100
AcDbEntity
  8
0
  6
Continuous
 62
     7
370
    18
100
AcDbSpline
210
0.0
220
0.0
230
1.0
 70
     8
 71
     3
 72
    11
 73
     7
 74
     0
 42
0.000000001
 43
0.00000001
 40
0.0
 40
0.0
 40
0.0
 40
0.0
 40
0.2467931488396548
 40
0.4949238393974725
 40
0.7468729128425501
 40
1.0
 40
1.0
 40
1.0
 40
1.0
 10
6597.885080776437
 20
5331.859277552978
 30
0.0
 10
6598.081017474343
 20
5331.823395385924
 30
0.0
 10
6598.473952785805
 20
5331.751436581685
 30
0.0
 10
6599.042770959354
 20
5331.698033532637
 30
0.0
 10
6599.596197606427
 20
5331.677831382946
 30
0.0
 10
6599.944299183139
 20
5331.695462649246
 30
0.0
 10
6600.11875591862
 20
5331.704298843525
 30
0.0
  0
SPLINE
  5
116
330
1F
100
AcDbEntity
  8
0
  6
Continuous
 62
     7
370
    25
100
AcDbSpline
210
0.0
220
0.0
230
1.0
 70
     8
 71
     3
 72
    15
 73
    11
 74
     0
 42
0.000000001
 43
0.00000001
 40
0.0
 40
0.0
 40
0.0
 40
0.0
 40
0.0082948303950599
 40
0.0704428785762998
 40
0.3468081057169393
 40
0.504172070577453
 40
0.66167399701844
 40
0.8195996167494
 40
0.9776729926347951
 40
1.0
 40
1.0
 40
1.0
 40
1.0
 10
6604.20406111925
 20
5334.326423879585
 30
0.0
 10
6604.204057734881
 20
5334.340739941635
 30
0.0
 10
6604.204028993525
 20
5334.46231742696
 30
0.0
 10
6604.201898435536
 20
5335.058772300163
 30
0.0
 10
6604.185224793719
 20
5335.898412162313
 30
0.0
 10
6604.139123871354
 20
5336.87857812371
 30
0.0
 10
6604.085449307247
 20
5337.650307962565
 30
0.0
 10
6604.013040691054
 20
5338.410701833467
 30
0.0
 10
6603.947160564503
 20
5338.94510500047
 30
0.0
 10
6603.906951181387
 20
5339.226973708385
 30
0.0
 10
6603.901974721931
 20
5339.261858804549
 30
0.0
  0
SPLINE
  5
117
330
1F
100
AcDbEntity
  8
0
  6
Continuous
 62
     7
370
    25
100
AcDbSpline
210
0.0
220
0.0
230
1.0
 70
     8
 71
     3
 72
    12
 73
     8
 74
     0
 42
0.000000001
 43
0.00000001
 40
0.0
 40
0.0
 40
0.0
 40
0.0
 40
0.0228449382885965
 40
0.1772298887705187
 40
0.3317936347653776
 40
0.6649873698169103
 40
0.9999999999999999
 40
0.9999999999999999
 40
0.9999999999999999
 40
0.9999999999999999
 10
6600.11875591862
 20
5331.704298843525
 30
0.0
 10
6600.101254267451
 20
5331.703068151135
 30
0.0
 10
6599.965477332935
 20
5331.693520501126
 30
0.0
 10
6599.709548333552
 20
5331.675330986164
 30
0.0
 10
6599.209493748452
 20
5331.639149836384
 30
0.0
 10
6598.560251904888
 20
5331.590999141183
 30
0.0
 10
6598.02523195777
 20
5331.549357518
 30
0.0
 10
6597.756993807087
 20
5331.528480030993
 30
0.0
  0
LINE
  5
118
330
1F
100
AcDbEntity
  8
0
  6
Continuous
 62
     7
370
    25
100
AcDbLine
 10
6578.26161419
 20
5323.497456379
 30
0.0
 11
6602.1702869442
 21
5325.5891942049
 31
0.0
  0
LINE
  5
119
330
1F
100
AcDbEntity
  8
0
  6
Continuous
 62
     7
370
    25
100
AcDbLine
 10
6601.2612479888
 20
5324.5058437641
 30
0.0
 11
6579.3449646308
 21
5322.5884174236
 31
0.0
  0
SPLINE
  5
11A
330
1F
100
AcDbEntity
  8
0
  6
Continuous
 62
     7
370
    25
100
AcDbSpline
210
0.0
220
0.0
230
1.0
 70
     8
 71
     3
 72
    10
 73
     6
 74
     0
 42
0.000000001
 43
0.00000001
 40
0.0
 40
0.0
 40
0.0
 40
0.0
 40
0.1559606290949861
 40
0.5720085256826779
 40
1.0
 40
1.0
 40
1.0
 40
1.0
 10
6600.50333031812
 20
5347.069384091445
 30
0.0
 10
6600.501686354954
 20
5347.071127111933
 30
0.0
 10
6600.495656878459
 20
5347.077519895705
 30
0.0
 10
6600.540038368963
 20
5347.030682577604
 30
0.0
 10
6600.610133128331
 20
5346.95386355311
 30
0.0
 10
6600.645676445903
 20
5346.914910527123
 30
0.0
  0
SPLINE
  5
11B
330
1F
100
AcDbEntity
  8
0
  6
Continuous
 62
     7
370
    18
100
AcDbSpline
210
0.0
220
0.0
230
1.0
 70
     8
 71
     3
 72
    25
 73
    21
 74
     0
 42
0.000000001
 43
0.00000001
 40
0.0
 40
0.0
 40
0.0
 40
0.0
 40
0.0473047327123874
 40
0.0947065265967545
 40
0.1556782163888894
 40
0.2172832290896796
 40
0.2801457072807802
 40
0.3432358694025061
 40
0.4478654614320003
 40
0.5529573944440371
 40
0.6460224243199968
 40
0.6928318431275047
 40
0.7397501752504161
 40
0.794506966711338
 40
0.8497445458360453
 40
0.8899335272037628
 40
0.9310521793160172
 40
0.9632704868349364
 40
0.9833419425927747
 40
1.0
 40
1.0
 40
1.0
 40
1.0
 10
6499.392273007937
 20
5324.853544698159
 30
0.0
 10
6498.683127933033
 20
5324.649229744734
 30
0.0
 10
6497.263382739551
 20
5324.240180618758
 30
0.0
 10
6494.985800242915
 20
5323.450509009373
 30
0.0
 10
6492.570518933561
 20
5322.367867180084
 30
0.0
 10
6490.056446035862
 20
5320.890501554179
 30
0.0
 10
6487.623307701226
 20
5319.206994607899
 30
0.0
 10
6484.756604596018
 20
5316.962217549732
 30
0.0
 10
6481.540335481681
 20
5314.110531069465
 30
0.0
 10
6478.192965592406
 20
5310.785295344715
 30
0.0
 10
6475.65928338395
 20
5308.032940934359
 30
0.0
 10
6473.837898863449
 20
5305.928325200679
 30
0.0
 10
6472.455815014
 20
5304.261684980724
 30
0.0
 10
6471.082334831523
 20
5302.526381957358
 30
0.0
 10
6469.880408044791
 20
5300.9324779933
 30
0.0
 10
6468.919354969197
 20
5299.608422808244
 30
0.0
 10
6468.252711159283
 20
5298.662067106344
 30
0.0
 10
6467.876215713925
 20
5298.116734097117
 30
0.0
 10
6467.711373780412
 20
5297.875981881223
 30
0.0
 10
6467.705885963329
 20
5297.867929183957
 30
0.0
 10
6467.703397055524
 20
5297.864277017571
 30
0.0
  0
SPLINE
  5
11C
330
1F
100
AcDbEntity
  8
0
  6
HIDDEN
 62
     7
370
    18
100
AcDbSpline
210
0.0
220
0.0
230
1.0
 70
     8
 71
     3
 72
    11
 73
     7
 74
     0
 42
0.000000001
 43
0.00000001
 40
0.0
 40
0.0
 40
0.0
 40
0.0
 40
0.0824665453665072
 40
0.4940650674683853
 40
0.6669752954002033
 40
0.9999999999999999
 40
0.9999999999999999
 40
0.9999999999999999
 40
0.9999999999999999
 10
6483.405294319121
 20
5232.00874989644
 30
0.0
 10
6483.405579012181
 20
5231.839701845855
 30
0.0
 10
6483.407284635903
 20
5230.826918587545
 30
0.0
 10
6483.409684704332
 20
5229.459688377589
 30
0.0
 10
6483.408700320302
 20
5227.578828527005
 30
0.0
 10
6483.416953592389
 20
5226.541737582997
 30
0.0
 10
6483.422386195125
 20
5225.859086745778
 30
0.0
  0
SPLINE
  5
11D
330
1F
100
AcDbEntity
  8
0
  6
HIDDEN
 62
     7
370
    18
100
AcDbSpline
210
0.0
220
0.0
230
1.0
 70
     8
 71
     3
 72
    18
 73
    14
 74
     0
 42
0.000000001
 43
0.00000001
 40
0.0
 40
0.0
 40
0.0
 40
0.0
 40
0.1632602691618332
 40
0.3068212477498745
 40
0.3628174584771995
 40
0.4828213888432751
 40
0.5882972401099739
 40
0.6507359751614099
 40
0.734857759546425
 40
0.8076102389110487
 40
0.8605980035025375
 40
0.9152680845167506
 40
1.0
 40
1.0
 40
1.0
 40
1.0
 10
6483.017577175353
 20
5265.011767392199
 30
0.0
 10
6483.061787631378
 20
5263.216210283041
 30
0.0
 10
6483.144874026806
 20
5259.841751356406
 30
0.0
 10
6483.215459684149
 20
5255.850583376399
 30
0.0
 10
6483.268316416734
 20
5252.335135379857
 30
0.0
 10
6483.306855759321
 20
5249.238523528528
 30
0.0
 10
6483.337397801693
 20
5246.070939874131
 30
0.0
 10
6483.359005772671
 20
5243.298075475686
 30
0.0
 10
6483.374256958928
 20
5240.885202716086
 30
0.0
 10
6483.385657512888
 20
5238.576291550527
 30
0.0
 10
6483.393465608723
 20
5236.591400786059
 30
0.0
 10
6483.400259317725
 20
5234.474705536922
 30
0.0
 10
6483.403390879749
 20
5232.940983412861
 30
0.0
 10
6483.405294319121
 20
5232.00874989644
 30
0.0
  0
SPLINE
  5
11E
330
1F
100
AcDbEntity
  8
0
  6
HIDDEN
 62
     7
370
    18
100
AcDbSpline
210
0.0
220
0.0
230
1.0
 70
     8
 71
     3
 72
    18
 73
    14
 74
     0
 42
0.000000001
 43
0.00000001
 40
0.0
 40
0.0
 40
0.0
 40
0.0
 40
0.0923111128866632
 40
0.1852177307085621
 40
0.2799109558522938
 40
0.3751811538904387
 40
0.4327481801817646
 40
0.5485483183661132
 40
0.6657223977694725
 40
0.7247597074936915
 40
0.8437032746337111
 40
0.9218136273366853
 40
1.0
 40
1.0
 40
1.0
 40
1.0
 10
6499.392273007964
 20
5324.853544698167
 30
0.0
 10
6498.246661781065
 20
5323.28784319951
 30
0.0
 10
6495.948048915453
 20
5320.146339760977
 30
0.0
 10
6492.965164860509
 20
5315.057369251727
 30
0.0
 10
6490.332748681491
 20
5309.707449162597
 30
0.0
 10
6488.401718126681
 20
5304.851808881241
 30
0.0
 10
6486.621394080822
 20
5299.467889303772
 30
0.0
 10
6485.07786201696
 20
5293.519278771389
 30
0.0
 10
6484.031729537669
 20
5287.426670864387
 30
0.0
 10
6483.328770475628
 20
5281.220564811257
 30
0.0
 10
6483.007556878383
 20
5275.805100866227
 30
0.0
 10
6482.919241208752
 20
5269.976916261112
 30
0.0
 10
6482.984787892904
 20
5266.667353586069
 30
0.0
 10
6483.017577175353
 20
5265.011767392199
 30
0.0
  0
LINE
  5
11F
330
1F
100
AcDbEntity
  8
0
  6
HIDDEN
 62
     7
370
    18
100
AcDbLine
 10
6457.9104214084
 20
5225.8590867458
 30
0.0
 11
6483.4223861946
 21
5225.8590867458
 31
0.0
  0
LINE
  5
120
330
1F
100
AcDbEntity
  8
0
  6
Continuous
 62
     7
370
    25
100
AcDbLine
 10
6485.7097926565
 20
5225.8590867458
 30
0.0
 11
6508.881346212
 21
5225.8590867458
 31
0.0
  0
LWPOLYLINE
  5
121
330
1F
100
AcDbEntity
  8
0
  6
HIDDEN
 62
     7
370
    18
100
AcDbPolyline
 90
        9
 70
   128
 43
0.0
 10
6497.9081894203
 20
5331.5261124509
 10
6497.7149620828
 20
5331.2931453519
 10
6497.631547051
 20
5330.8693905285
 10
6497.6591773817
 20
5330.2611120049
 10
6497.797444638
 20
5329.4773014694
 10
6498.0443049273
 20
5328.5295453578
 10
6498.3961091139
 20
5327.4318535807
 10
6498.8476567618
 20
5326.2004524257
 10
6499.392273008
 20
5324.8535446982
  0
SPLINE
  5
122
330
1F
100
AcDbEntity
  8
0
  6
HIDDEN
 62
     7
370
    18
100
AcDbSpline
210
0.0
220
0.0
230
1.0
 70
     8
 71
     3
 72
    20
 73
    16
 74
     0
 42
0.000000001
 43
0.00000001
 40
0.0
 40
0.0
 40
0.0
 40
0.0
 40
0.1122087967712619
 40
0.225384447343608
 40
0.3683260524317794
 40
0.5124612065390377
 40
0.6594298850003101
 40
0.8073521159512059
 40
0.8729384173779084
 40
0.9173749204472285
 40
0.9586658280605881
 40
0.9761721499306122
 40
0.9891097840175399
 40
0.9931798625756796
 40
1.0
 40
1.0
 40
1.0
 40
1.0
 10
6497.908189420334
 20
5331.526112450928
 30
0.0
 10
6496.434227275036
 20
5330.68267191312
 30
0.0
 10
6493.47360250156
 20
5328.988523281719
 30
0.0
 10
6488.996145495427
 20
5325.623200110759
 30
0.0
 10
6484.530803946162
 20
5321.49669190821
 30
0.0
 10
6480.091320609213
 20
5316.631683216349
 30
0.0
 10
6475.973254409341
 20
5311.424383981626
 30
0.0
 10
6472.900533324674
 20
5306.964584478211
 30
0.0
 10
6470.888892184566
 20
5303.720500831318
 30
0.0
 10
6469.779424084893
 20
5301.830326823591
 30
0.0
 10
6469.069826058549
 20
5300.56765925507
 30
0.0
 10
6468.635902807168
 20
5299.774203472434
 30
0.0
 10
6468.464682161049
 20
5299.457120750219
 30
0.0
 10
6468.380644109555
 20
5299.300758910114
 30
0.0
 10
6468.364217206457
 20
5299.270113377806
 30
0.0
 10
6468.35392964772
 20
5299.250921220174
 30
0.0
  0
SPLINE
  5
123
330
1F
100
AcDbEntity
  8
0
  6
Continuous
 62
     7
370
    25
100
AcDbSpline
210
0.0
220
0.0
230
1.0
 70
     8
 71
     3
 72
    19
 73
    15
 74
     0
 42
0.000000001
 43
0.00000001
 40
0.0
 40
0.0
 40
0.0
 40
0.0
 40
0.0757378782528944
 40
0.1516678983541633
 40
0.2281977766452251
 40
0.3049363652431374
 40
0.3791868582272388
 40
0.4536063624693518
 40
0.5284760127593716
 40
0.6034816543654522
 40
0.6797978939504593
 40
0.7562206353329857
 40
0.9095497873258831
 40
1.0
 40
1.0
 40
1.0
 40
1.0
 10
6520.675431985569
 20
5300.627464403934
 30
0.0
 10
6520.043538286121
 20
5299.573126559316
 30
0.0
 10
6518.778147815869
 20
5297.461776086642
 30
0.0
 10
6517.080933154652
 20
5294.172893157425
 30
0.0
 10
6515.542265062644
 20
5290.792113338279
 30
0.0
 10
6514.204012500777
 20
5287.358373689787
 30
0.0
 10
6513.059472933802
 20
5283.896340568544
 30
0.0
 10
6512.095271372284
 20
5280.414000227141
 30
0.0
 10
6511.286558694546
 20
5276.873718803328
 30
0.0
 10
6510.617257694676
 20
5273.259155380418
 30
0.0
 10
6510.077114187749
 20
5269.579034037461
 30
0.0
 10
6509.51504260679
 20
5264.592150958906
 30
0.0
 10
6509.148925152209
 20
5259.33966508371
 30
0.0
 10
6509.020725069074
 20
5255.342257326271
 30
0.0
 10
6508.973158595183
 20
5253.859086745778
 30
0.0
  0
SPLINE
  5
124
330
1F
100
AcDbEntity
  8
0
  6
HIDDEN
 62
     7
370
    18
100
AcDbSpline
210
0.0
220
0.0
230
1.0
 70
     8
 71
     3
 72
    19
 73
    15
 74
     0
 42
0.000000001
 43
0.00000001
 40
0.0
 40
0.0
 40
0.0
 40
0.0
 40
0.0904501871301134
 40
0.2398564947198184
 40
0.3147443684780452
 40
0.3897198502511866
 40
0.4656869831594193
 40
0.5417919794487192
 40
0.6183398609444506
 40
0.695063691753488
 40
0.7707998259446407
 40
0.846738334429118
 40
0.9232743865181797
 40
1.0
 40
1.0
 40
1.0
 40
1.0
 10
6508.973158595183
 20
5253.859086745778
 30
0.0
 10
6509.020716526003
 20
5255.342264402643
 30
0.0
 10
6509.14683100895
 20
5259.275366202764
 30
0.0
 10
6509.503787458736
 20
5264.438124955145
 30
0.0
 10
6510.044275569337
 20
5269.316043027134
 30
0.0
 10
6510.569782941838
 20
5272.968039200551
 30
0.0
 10
6511.22988316481
 20
5276.599981497676
 30
0.0
 10
6512.043344399983
 20
5280.211704032644
 30
0.0
 10
6513.024610217938
 20
5283.787334958865
 30
0.0
 10
6514.184384531162
 20
5287.30564423387
 30
0.0
 10
6515.52658585298
 20
5290.753060260289
 30
0.0
 10
6517.055481805082
 20
5294.120616760458
 30
0.0
 10
6518.757196981599
 20
5297.425491577295
 30
0.0
 10
6520.035493298142
 20
5299.559260412444
 30
0.0
 10
6520.675431985569
 20
5300.627464403933
 30
0.0
  0
LINE
  5
125
330
1F
100
AcDbEntity
  8
0
  6
HIDDEN
 62
     7
370
    18
100
AcDbLine
 10
6505.8815428024
 20
5225.8590867458
 30
0.0
 11
6460.9392999797
 21
5225.8590867458
 31
0.0
  0
LINE
  5
126
330
1F
100
AcDbEntity
  8
0
  6
HIDDEN
 62
     7
370
    18
100
AcDbLine
 10
6589.7073559678
 20
5334.6392199549
 30
0.0
 11
6589.7037868034
 21
5335.5040921485
 31
0.0
  0
LINE
  5
127
330
1F
100
AcDbEntity
  8
0
  6
HIDDEN
 62
     7
370
    18
100
AcDbLine
 10
6589.7073559678
 20
5334.6392199549
 30
0.0
 11
6589.7073559678
 21
5334.5625557824
 31
0.0
  0
SPLINE
  5
128
330
1F
100
AcDbEntity
  8
0
  6
Continuous
 62
     7
370
    25
100
AcDbSpline
210
0.0
220
0.0
230
1.0
 70
     8
 71
     3
 72
    39
 73
    35
 74
     0
 42
0.000000001
 43
0.00000001
 40
0.0
 40
0.0
 40
0.0
 40
0.0
 40
0.027970149928745
 40
0.0561428302824431
 40
0.0849406849442331
 40
0.1139486764098248
 40
0.1419166830315425
 40
0.1700722417732743
 40
0.1988216789278138
 40
0.2277791377318318
 40
0.256060204357428
 40
0.284555261217797
 40
0.3137674314915756
 40
0.3432490304338402
 40
0.3958455122453803
 40
0.4226606477054103
 40
0.4500080873059973
 40
0.4729440512792781
 40
0.5193144676005593
 40
0.5427992086096859
 40
0.5646693518896508
 40
0.6087902456292636
 40
0.6310626751296244
 40
0.654793042665342
 40
0.7026267264096919
 40
0.7267497660792012
 40
0.7808922665915459
 40
0.8083090689502685
 40
0.836057487838369
 40
0.8653868545402549
 40
0.8949210398775815
 40
0.9251220762702329
 40
0.9555644546457764
 40
1.0
 40
1.0
 40
1.0
 40
1.0
 10
6508.035372879783
 20
5243.159086745778
 30
0.0
 10
6507.986366385863
 20
5243.163067217741
 30
0.0
 10
6507.887998544506
 20
5243.171056984061
 30
0.0
 10
6507.730310591363
 20
5243.235589076083
 30
0.0
 10
6507.565716125047
 20
5243.339225657673
 30
0.0
 10
6507.397375069531
 20
5243.484158129841
 30
0.0
 10
6507.228254036072
 20
5243.666382238274
 30
0.0
 10
6507.05946741452
 20
5243.884823001556
 30
0.0
 10
6506.890667693177
 20
5244.142193024069
 30
0.0
 10
6506.726004017158
 20
5244.43556418781
 30
0.0
 10
6506.568769050611
 20
5244.761871291388
 30
0.0
 10
6506.420700095014
 20
5245.12124271762
 30
0.0
 10
6506.283512159357
 20
5245.516959330747
 30
0.0
 10
6506.129495492086
 20
5246.059309077149
 30
0.0
 10
6506.013416447066
 20
5246.637820915922
 30
0.0
 10
6505.942355272055
 20
5247.235288325513
 30
0.0
 10
6505.913701559261
 20
5247.678539339058
 30
0.0
 10
6505.905650698172
 20
5248.241876598464
 30
0.0
 10
6505.935831985198
 20
5248.788335477939
 30
0.0
 10
6506.002146677686
 20
5249.318841899047
 30
0.0
 10
6506.08858056536
 20
5249.827356668722
 30
0.0
 10
6506.203309634152
 20
5250.31223313079
 30
0.0
 10
6506.344874124257
 20
5250.780992025669
 30
0.0
 10
6506.50780618865
 20
5251.248788562725
 30
0.0
 10
6506.695238265444
 20
5251.691208822525
 30
0.0
 10
6506.960081523375
 20
5252.220616236651
 30
0.0
 10
6507.195122274379
 20
5252.615190625183
 30
0.0
 10
6507.442231360532
 20
5252.963920182829
 30
0.0
 10
6507.633480954336
 20
5253.20180228657
 30
0.0
 10
6507.827414147994
 20
5253.410424550607
 30
0.0
 10
6508.022332349335
 20
5253.586374877239
 30
0.0
 10
6508.21231129697
 20
5253.721750708811
 30
0.0
 10
6508.42405153061
 20
5253.832791842662
 30
0.0
 10
6508.558547183585
 20
5253.849293816539
 30
0.0
 10
6508.638362266455
 20
5253.859086745778
 30
0.0
  0
SPLINE
  5
129
330
1F
100
AcDbEntity
  8
0
  6
HIDDEN
 62
     7
370
    18
100
AcDbSpline
210
0.0
220
0.0
230
1.0
 70
    11
 71
     3
 72
    39
 73
    35
 74
     0
 42
0.000000001
 43
0.00000001
 40
0.0
 40
0.0
 40
0.0
 40
0.0
 40
0.045998038488592
 40
0.0927519618132944
 40
0.1532019789697706
 40
0.1842171285164449
 40
0.1980827354146224
 40
0.2067575033531323
 40
0.2154600569919647
 40
0.2759433372411637
 40
0.3069757104922754
 40
0.3092012590675873
 40
0.3186240520098418
 40
0.3382361230029096
 40
0.3684109107799772
 40
0.3987952418236976
 40
0.4298405426905042
 40
0.4356454698054054
 40
0.4611142769784414
 40
0.5000493391018258
 40
0.5216116036044027
 40
0.5526520533556928
 40
0.5839208506127483
 40
0.6752849335773189
 40
0.706549221252259
 40
0.7367219658805374
 40
0.7671041723432637
 40
0.7981470571759596
 40
0.829418282281726
 40
0.8595910864016879
 40
0.88997354077342
 40
0.9210174350424379
 40
0.952289989840512
 40
1.0
 40
1.0
 40
1.0
 40
1.0
 10
6592.011939217941
 20
5331.01498426198
 30
0.0
 10
6592.501429578311
 20
5331.063288677866
 30
0.0
 10
6593.488454084244
 20
5331.160691295128
 30
0.0
 10
6595.0422257043
 20
5331.302853034543
 30
0.0
 10
6596.344337545945
 20
5331.414518164212
 30
0.0
 10
6597.266470587252
 20
5331.48986922012
 30
0.0
 10
6597.691085040916
 20
5331.523026103872
 30
0.0
 10
6597.942300422463
 20
5331.54278403932
 30
0.0
 10
6598.5731574991
 20
5331.592517340652
 30
0.0
 10
6599.252468693997
 20
5331.642337931776
 30
0.0
 10
6599.835535466257
 20
5331.684432814337
 30
0.0
 10
6600.053375194952
 20
5331.699644279656
 30
0.0
 10
6600.212969834283
 20
5331.710794046902
 30
0.0
 10
6600.528372952625
 20
5331.732944384583
 30
0.0
 10
6600.865022984153
 20
5331.755798313133
 30
0.0
 10
6601.177393072838
 20
5331.776776365387
 30
0.0
 10
6601.366933647167
 20
5331.789296144055
 30
0.0
 10
6601.462229810786
 20
5331.795535022186
 30
0.0
 10
6601.614664244198
 20
5331.805528302652
 30
0.0
 10
6601.566363160287
 20
5331.80235473769
 30
0.0
 10
6601.631170489996
 20
5331.806582005515
 30
0.0
 10
6601.508966911643
 20
5331.79862312281
 30
0.0
 10
6601.207749083864
 20
5331.778835796564
 30
0.0
 10
6600.605460021861
 20
5331.738663769813
 30
0.0
 10
6599.766921888844
 20
5331.679535694456
 30
0.0
 10
6599.19081522546
 20
5331.637801647031
 30
0.0
 10
6598.549988402314
 20
5331.590006905903
 30
0.0
 10
6597.83794389737
 20
5331.53517413326
 30
0.0
 10
6597.068492517419
 20
5331.473836511935
 30
0.0
 10
6596.252317796785
 20
5331.406389432127
 30
0.0
 10
6595.392580677321
 20
5331.332721330294
 30
0.0
 10
6594.481350549377
 20
5331.251515338444
 30
0.0
 10
6593.360528684665
 20
5331.148058708369
 30
0.0
 10
6592.519792319031
 20
5331.065097563279
 30
0.0
 10
6592.01193921794
 20
5331.01498426198
 30
0.0
  0
SPLINE
  5
12A
330
1F
100
AcDbEntity
  8
0
  6
HIDDEN
 62
     7
370
    18
100
AcDbSpline
210
0.0
220
0.0
230
1.0
 70
     8
 71
     3
 72
     9
 73
     5
 74
     0
 42
0.000000001
 43
0.00000001
 40
0.0
 40
0.0
 40
0.0
 40
0.0
 40
0.4974321762393123
 40
1.0
 40
1.0
 40
1.0
 40
1.0
 10
6589.612737661136
 20
5330.7626071672
 30
0.0
 10
6590.01328886156
 20
5330.80641660184
 30
0.0
 10
6590.818526680012
 20
5330.894487773615
 30
0.0
 10
6591.612775378179
 20
5330.974681483649
 30
0.0
 10
6592.011939217941
 20
5331.01498426198
 30
0.0
  0
LINE
  5
12B
330
1F
100
AcDbEntity
  8
0
  6
HIDDEN
 62
     7
370
    18
100
AcDbLine
 10
6602.1702869442
 20
5325.5891942049
 30
0.0
 11
6578.26161419
 21
5323.497456379
 31
0.0
  0
SPLINE
  5
12C
330
1F
100
AcDbEntity
  8
0
  6
HIDDEN
 62
     7
370
    18
100
AcDbSpline
210
0.0
220
0.0
230
1.0
 70
    11
 71
     3
 72
    42
 73
    38
 74
     0
 42
0.000000001
 43
0.00000001
 40
0.0
 40
0.0
 40
0.0
 40
0.0
 40
0.0012173246659123
 40
0.0543886136496462
 40
0.0813767807948777
 40
0.108757577329806
 40
0.1352020653983365
 40
0.1618297453828929
 40
0.1890348101042362
 40
0.2164392526716531
 40
0.2429218443020776
 40
0.2695882224526795
 40
0.2968345236482769
 40
0.3242813877346894
 40
0.3507600860072563
 40
0.3774231816304139
 40
0.4046686372031406
 40
0.4321156667431431
 40
0.4658763511533691
 40
0.5000240989755094
 40
0.5531524717606678
 40
0.5801201470862406
 40
0.6074814227804011
 40
0.6235357011370364
 40
0.6606081824935275
 40
0.687573173136316
 40
0.7149297315160166
 40
0.7413733873079679
 40
0.7680000955665469
 40
0.7952038312293225
 40
0.8226068823292243
 40
0.8490944832338677
 40
0.8757660685195647
 40
0.903018302824637
 40
0.9304713611907705
 40
0.9650289243152739
 40
1.0
 40
1.0
 40
1.0
 40
1.0
 10
6589.612737661121
 20
5330.762607167198
 30
0.0
 10
6589.597579223849
 20
5330.760938060969
 30
0.0
 10
6588.920318332471
 20
5330.686364386102
 30
0.0
 10
6587.905585600341
 20
5330.57029056442
 30
0.0
 10
6586.598504299074
 20
5330.412642127977
 30
0.0
 10
6585.638219181817
 20
5330.292755199977
 30
0.0
 10
6584.711391098564
 20
5330.17319809744
 30
0.0
 10
6583.821379395063
 20
5330.054813479885
 30
0.0
 10
6582.962742264393
 20
5329.937192942593
 30
0.0
 10
6582.154337497926
 20
5329.823318256534
 30
0.0
 10
6581.404806932408
 20
5329.71501007676
 30
0.0
 10
6580.714461475371
 20
5329.612918165454
 30
0.0
 10
6580.079940117298
 20
5329.517058503696
 30
0.0
 10
6579.516338207863
 20
5329.430253894267
 30
0.0
 10
6579.028816872332
 20
5329.353911720701
 30
0.0
 10
6578.616627561619
 20
5329.288453528202
 30
0.0
 10
6578.278478793552
 20
5329.234116388746
 30
0.0
 10
6578.000741724524
 20
5329.189065572907
 30
0.0
 10
6577.811966173794
 20
5329.158208800529
 30
0.0
 10
6577.732400439154
 20
5329.145126706178
 30
0.0
 10
6577.846535484415
 20
5329.163959221955
 30
0.0
 10
6578.133009611681
 20
5329.210476553041
 30
0.0
 10
6578.359517195436
 20
5329.247413556624
 30
0.0
 10
6578.797181226073
 20
5329.316562499423
 30
0.0
 10
6579.146739180697
 20
5329.372715482664
 30
0.0
 10
6579.754901009839
 20
5329.46716663991
 30
0.0
 10
6580.34146104702
 20
5329.55680037301
 30
0.0
 10
6580.997242906634
 20
5329.65500517274
 30
0.0
 10
6581.710613733406
 20
5329.75952448013
 30
0.0
 10
6582.489909192885
 20
5329.870964637233
 30
0.0
 10
6583.319878767397
 20
5329.986517562287
 30
0.0
 10
6584.189606034739
 20
5330.104218664216
 30
0.0
 10
6585.096289412088
 20
5330.223318923841
 30
0.0
 10
6586.04710281711
 20
5330.344325549014
 30
0.0
 10
6587.1193980772
 20
5330.476142810739
 30
0.0
 10
6588.311223698977
 20
5330.617357973013
 30
0.0
 10
6589.177182946984
 20
5330.71399918212
 30
0.0
 10
6589.612737661136
 20
5330.7626071672
 30
0.0
  0
LINE
  5
12D
330
1F
100
AcDbEntity
  8
0
  6
HIDDEN
 62
     7
370
    18
100
AcDbLine
 10
6579.3449646308
 20
5322.5884174236
 30
0.0
 11
6601.2612479888
 21
5324.5058437641
 31
0.0
  0
LINE
  5
12E
330
1F
100
AcDbEntity
  8
0
  6
HIDDEN
 62
     7
370
    18
100
AcDbLine
 10
6600.2650532907
 20
5324.4186880213
 30
0.0
 11
6580.3703896619
 21
5322.6781304891
 31
0.0
  0
LWPOLYLINE
  5
12F
330
1F
100
AcDbEntity
  8
0
  6
HIDDEN
 62
     7
370
    18
100
AcDbPolyline
 90
       14
 70
   128
 43
0.0
 10
6497.9081894203
 20
5331.5261124509
 10
6498.0925716067
 20
5331.4957893579
 10
6498.385541852
 20
5331.2635813585
 10
6498.7825883556
 20
5330.8330645028
 10
6499.2775965215
 20
5330.2108688368
 10
6499.8629431245
 20
5329.4065762988
 10
6500.5296137094
 20
5328.4325731554
 10
6501.2673414151
 20
5327.3038592508
 10
6502.0647650867
 20
5326.037817006
 10
6502.9096042396
 20
5324.6539437258
 10
6503.7888481808
 20
5323.1735513369
 10
6504.6889563772
 20
5321.6194381796
 10
6505.5960669815
 20
5320.0155379087
 10
6506.4962103083
 20
5318.3865509108
  0
SPLINE
  5
130
330
1F
100
AcDbEntity
  8
0
  6
HIDDEN
 62
     7
370
    18
100
AcDbSpline
210
0.0
220
0.0
230
1.0
 70
     8
 71
     3
 72
    19
 73
    15
 74
     0
 42
0.000000001
 43
0.00000001
 40
0.0
 40
0.0
 40
0.0
 40
0.0
 40
0.0735290256178308
 40
0.1473158176628961
 40
0.221388117860795
 40
0.2957257054594938
 40
0.3828064755235819
 40
0.4701008738246159
 40
0.5575983918365246
 40
0.6457221006703903
 40
0.7338963150683978
 40
0.8225136636776721
 40
0.9112415010843604
 40
1.0
 40
1.0
 40
1.0
 40
1.0
 10
6506.49621030827
 20
5318.38655091076
 30
0.0
 10
6508.22946393527
 20
5319.301761046515
 30
0.0
 10
6511.702047355673
 20
5321.135389716951
 30
0.0
 10
6517.11169065435
 20
5323.500260552187
 30
0.0
 10
6522.671075806466
 20
5325.541499356666
 30
0.0
 10
6528.682769512225
 20
5327.342765396365
 30
0.0
 10
6535.126358623714
 20
5328.890486251874
 30
0.0
 10
6541.978650273541
 20
5330.196222328465
 30
0.0
 10
6548.900487858742
 20
5331.254281681267
 30
0.0
 10
6555.872082763632
 20
5332.118440928772
 30
0.0
 10
6562.890616664564
 20
5332.82998565157
 30
0.0
 10
6569.938896209852
 20
5333.388178871976
 30
0.0
 10
6577.012088216685
 20
5333.814106912069
 30
0.0
 10
6581.734706803583
 20
5333.99036367365
 30
0.0
 10
6584.096424023116
 20
5334.078507278989
 30
0.0
  0
LINE
  5
131
330
1F
100
AcDbEntity
  8
0
  6
HIDDEN
 62
     7
370
    18
100
AcDbLine
 10
6589.7757058635
 20
5334.9613139892
 30
0.0
 11
6584.0964240231
 21
5334.078507279
 31
0.0
  0
SPLINE
  5
132
330
1F
100
AcDbEntity
  8
0
  6
HIDDEN
 62
     7
370
    18
100
AcDbSpline
210
0.0
220
0.0
230
1.0
 70
     8
 71
     3
 72
    17
 73
    13
 74
     0
 42
0.000000001
 43
0.00000001
 40
0.0
 40
0.0
 40
0.0
 40
0.0
 40
0.09645866326815
 40
0.2527250312980175
 40
0.4089770449992629
 40
0.5143131290727956
 40
0.6196744969603366
 40
0.7249052943990743
 40
0.7931925953315251
 40
0.8614726167012997
 40
0.9307352183808186
 40
1.0
 40
1.0
 40
1.0
 40
1.0
 10
6594.106933249939
 20
5349.304057072743
 30
0.0
 10
6590.931748954586
 20
5349.262525060762
 30
0.0
 10
6582.61265636889
 20
5349.153709754054
 30
0.0
 10
6569.158376729887
 20
5348.540265780274
 30
0.0
 10
6555.447497433286
 20
5347.363382429986
 30
0.0
 10
6543.455052562293
 20
5345.871340854168
 30
0.0
 10
6533.190518214246
 20
5344.143878708309
 30
0.0
 10
6524.231430796438
 20
5342.075388941485
 30
0.0
 10
6516.595787990322
 20
5339.784975744901
 30
0.0
 10
6510.222901070893
 20
5337.449507971921
 30
0.0
 10
6503.966520946098
 20
5334.728746179434
 30
0.0
 10
6499.927654448163
 20
5332.593668226667
 30
0.0
 10
6497.908189420334
 20
5331.526112450928
 30
0.0
  0
SPLINE
  5
133
330
1F
100
AcDbEntity
  8
0
  6
HIDDEN
 62
     7
370
    25
100
AcDbSpline
210
0.0
220
0.0
230
1.0
 70
    24
 71
     3
 72
     9
 73
     5
 74
     0
 42
0.000000001
 43
0.00000001
 40
0.0
 40
0.0
 40
0.0
 40
0.0
 40
0.4987579434758676
 40
1.0
 40
1.0
 40
1.0
 40
1.0
 10
6508.03537287978
 20
5243.159086745778
 30
0.0
 10
6508.201112561579
 20
5243.159086745778
 30
0.0
 10
6508.533417407983
 20
5243.159086745778
 30
0.0
 10
6508.742533949609
 20
5243.159086745778
 30
0.0
 10
6508.847351954988
 20
5243.159086745778
 30
0.0
  0
LINE
  5
134
330
1F
100
AcDbEntity
  8
0
  6
HIDDEN
 62
     7
370
    25
100
AcDbLine
 10
6508.9731585952
 20
5253.8590867458
 30
0.0
 11
6508.6383622665
 21
5253.8590867458
 31
0.0
  0
SPLINE
  5
135
330
1F
100
AcDbEntity
  8
0
  6
Continuous
 62
     7
370
    25
100
AcDbSpline
210
0.0
220
0.0
230
1.0
 70
     8
 71
     3
 72
    12
 73
     8
 74
     0
 42
0.000000001
 43
0.00000001
 40
0.0
 40
0.0
 40
0.0
 40
0.0
 40
0.4963927398243342
 40
0.7446427026459362
 40
0.8687824933808846
 40
0.9929291998186305
 40
1.0
 40
1.0
 40
1.0
 40
1.0
 10
6508.847351954991
 20
5243.159086745777
 30
0.0
 10
6508.855218583542
 20
5240.296510667394
 30
0.0
 10
6508.867019375688
 20
5236.002337492558
 30
0.0
 10
6508.897613198739
 20
5231.012312154132
 30
0.0
 10
6508.907862487981
 20
5228.161972607577
 30
0.0
 10
6508.910331119869
 20
5226.706504668062
 30
0.0
 10
6508.91041341936
 20
5225.951664282095
 30
0.0
 10
6508.910417854158
 20
5225.910988874708
 30
0.0
  0
SPLINE
  5
136
330
1F
100
AcDbEntity
  8
0
  6
HIDDEN
 62
     7
370
    18
100
AcDbSpline
210
0.0
220
0.0
230
1.0
 70
     8
 71
     3
 72
    12
 73
     8
 74
     0
 42
0.000000001
 43
0.00000001
 40
0.0
 40
0.0
 40
0.0
 40
0.0
 40
0.0070708002226454
 40
0.1310927200116968
 40
0.2551445640232025
 40
0.5033311790314501
 40
1.0
 40
1.0
 40
1.0
 40
1.0
 10
6508.910417854158
 20
5225.910988874708
 30
0.0
 10
6508.910413419416
 20
5225.951664289381
 30
0.0
 10
6508.910331199232
 20
5226.705786959965
 30
0.0
 10
6508.907866706915
 20
5228.160040835129
 30
0.0
 10
6508.89762992541
 20
5231.008790110983
 30
0.0
 10
6508.867038636187
 20
5235.999519593784
 30
0.0
 10
6508.855227564897
 20
5240.294918964816
 30
0.0
 10
6508.847351954988
 20
5243.159086745778
 30
0.0
  0
SPLINE
  5
137
330
1F
100
AcDbEntity
  8
0
  6
HIDDEN
 62
     7
370
    18
100
AcDbSpline
210
0.0
220
0.0
230
1.0
 70
     8
 71
     3
 72
    22
 73
    18
 74
     0
 42
0.000000001
 43
0.00000001
 40
0.0
 40
0.0
 40
0.0
 40
0.0
 40
0.0444697148862744
 40
0.1142871860434952
 40
0.1861025133053842
 40
0.272928208937722
 40
0.3622369367756808
 40
0.4530900225555755
 40
0.5459781007965878
 40
0.6336355629261304
 40
0.7234856077396806
 40
0.7842441552557984
 40
0.8465300926038128
 40
0.8878634279412437
 40
0.930052645134344
 40
0.9722939207362333
 40
0.9999999999999999
 40
0.9999999999999999
 40
0.9999999999999999
 40
0.9999999999999999
 10
6603.895917534851
 20
5339.303620552348
 30
0.0
 10
6603.876236511542
 20
5339.434082740296
 30
0.0
 10
6603.82565627332
 20
5339.769370618433
 30
0.0
 10
6603.717452736643
 20
5340.372126081409
 30
0.0
 10
6603.550712063891
 20
5341.144959096386
 30
0.0
 10
6603.323775130676
 20
5342.001790241437
 30
0.0
 10
6603.024943735571
 20
5342.910720999967
 30
0.0
 10
6602.664435187676
 20
5343.803100540583
 30
0.0
 10
6602.256435439132
 20
5344.634142112927
 30
0.0
 10
6601.813736822392
 20
5345.390265115518
 30
0.0
 10
6601.410380234562
 20
5345.978143835146
 30
0.0
 10
6601.068264037432
 20
5346.42263555638
 30
0.0
 10
6600.834429930263
 20
5346.702368293097
 30
0.0
 10
6600.666734191639
 20
5346.892335836321
 30
0.0
 10
6600.561397924969
 20
5347.007498554138
 30
0.0
 10
6600.501563944939
 20
5347.071280220849
 30
0.0
 10
6600.50282916549
 20
5347.069922058308
 30
0.0
 10
6600.50333031812
 20
5347.069384091445
 30
0.0
  0
SPLINE
  5
138
330
1F
100
AcDbEntity
  8
0
  6
HIDDEN
 62
     7
370
    18
100
AcDbSpline
210
0.0
220
0.0
230
1.0
 70
    27
 71
     3
 72
     9
 73
     5
 74
     0
 42
0.000000001
 43
0.00000001
 40
0.0
 40
0.0
 40
0.0
 40
0.0
 40
0.498135467646052
 40
1.0
 40
1.0
 40
1.0
 40
1.0
 10
6594.106933249939
 20
5349.304057072744
 30
0.0
 10
6594.117923375309
 20
5349.304139838316
 30
0.0
 10
6594.139985898626
 20
5349.304305989048
 30
0.0
 10
6594.117978155601
 20
5349.304140250862
 30
0.0
 10
6594.106933249939
 20
5349.304057072744
 30
0.0
  0
SPLINE
  5
139
330
1F
100
AcDbEntity
  8
0
  6
HIDDEN
 62
     7
370
    18
100
AcDbSpline
210
0.0
220
0.0
230
1.0
 70
     8
 71
     3
 72
    10
 73
     6
 74
     0
 42
0.000000001
 43
0.00000001
 40
0.0
 40
0.0
 40
0.0
 40
0.0
 40
0.0185434746695025
 40
0.5087625420250527
 40
0.9999999999999999
 40
0.9999999999999999
 40
0.9999999999999999
 40
0.9999999999999999
 10
6604.20406111925
 20
5334.326423879585
 30
0.0
 10
6604.204057548638
 20
5334.312100327684
 30
0.0
 10
6604.203959584616
 20
5333.919116444909
 30
0.0
 10
6604.196437406525
 20
5333.139387464574
 30
0.0
 10
6604.175947383438
 20
5332.353702310569
 30
0.0
 10
6604.165691741344
 20
5331.96045210757
 30
0.0
  0
SPLINE
  5
13A
330
1F
100
AcDbEntity
  8
0
  6
HIDDEN
 62
     7
370
    18
100
AcDbSpline
210
0.0
220
0.0
230
1.0
 70
     8
 71
     3
 72
    15
 73
    11
 74
     0
 42
0.000000001
 43
0.00000001
 40
0.0
 40
0.0
 40
0.0
 40
0.0
 40
0.0324094770669567
 40
0.188199639239424
 40
0.3441363632431337
 40
0.5004998013113551
 40
0.6570017042842394
 40
0.930422495242903
 40
0.991778516377196
 40
0.9999999999999999
 40
0.9999999999999999
 40
0.9999999999999999
 40
0.9999999999999999
 10
6603.895917534851
 20
5339.303620552348
 30
0.0
 10
6603.903260721984
 20
5339.252563277289
 30
0.0
 10
6603.945902112542
 20
5338.956077137548
 30
0.0
 10
6604.01332429893
 20
5338.407534410536
 30
0.0
 10
6604.085547222979
 20
5337.64912248853
 30
0.0
 10
6604.139224250021
 20
5336.877065520143
 30
0.0
 10
6604.185287074617
 20
5335.896381213596
 30
0.0
 10
6604.201909596934
 20
5335.057067398398
 30
0.0
 10
6604.204029097454
 20
5334.461895192034
 30
0.0
 10
6604.204057735315
 20
5334.340739942041
 30
0.0
 10
6604.20406111925
 20
5334.326423879585
 30
0.0
  0
SPLINE
  5
13B
330
1F
100
AcDbEntity
  8
0
  6
HIDDEN
 62
     7
370
    18
100
AcDbSpline
210
0.0
220
0.0
230
1.0
 70
     8
 71
     3
 72
    11
 73
     7
 74
     0
 42
0.000000001
 43
0.00000001
 40
0.0
 40
0.0
 40
0.0
 40
0.0
 40
0.2511926915008584
 40
0.5096713206697122
 40
0.7515954383139205
 40
1.0
 40
1.0
 40
1.0
 40
1.0
 10
6604.165691741344
 20
5331.96045210757
 30
0.0
 10
6604.062067376462
 20
5331.954621378771
 30
0.0
 10
6603.85181298336
 20
5331.94279079871
 30
0.0
 10
6602.9813636103
 20
5331.891708515083
 30
0.0
 10
6601.766662781918
 20
5331.816991209309
 30
0.0
 10
6600.672876891303
 20
5331.742192491966
 30
0.0
 10
6600.118755918596
 20
5331.704298843523
 30
0.0
  0
ARC
  5
13C
330
1F
100
AcDbEntity
  8
0
  6
HIDDEN
 62
     7
370
    18
100
AcDbCircle
 10
6573.0449088524
 20
5331.6279095451
 30
0.0
 40
11.31995657335931
100
AcDbArc
 50
352.3113940077
 51
12.5026476912
  0
SPLINE
  5
13D
330
1F
100
AcDbEntity
  8
0
  6
HIDDEN
 62
     7
370
    18
100
AcDbSpline
210
0.0
220
0.0
230
1.0
 70
     8
 71
     3
 72
    20
 73
    16
 74
     0
 42
0.000000001
 43
0.00000001
 40
0.0
 40
0.0
 40
0.0
 40
0.0
 40
0.0877880077274569
 40
0.1610085458154601
 40
0.2342796421676531
 40
0.3072256778599419
 40
0.4510257618831726
 40
0.520529685498059
 40
0.5901654100808789
 40
0.6517434596928193
 40
0.7134829920415451
 40
0.7685620711058293
 40
0.8503816104279338
 40
0.9332102607883339
 40
1.0
 40
1.0
 40
1.0
 40
1.0
 10
6584.096424023116
 20
5334.078507278989
 30
0.0
 10
6582.05639716046
 20
5333.791475715775
 30
0.0
 10
6578.31486381116
 20
5333.26504237035
 30
0.0
 10
6572.899053413717
 20
5332.314765960009
 30
0.0
 10
6567.850115317397
 20
5331.298277967097
 30
0.0
 10
6561.220160710905
 20
5329.756540299759
 30
0.0
 10
6554.749897582994
 20
5327.92181510279
 30
0.0
 10
6548.477875170249
 20
5325.731966637525
 30
0.0
 10
6544.100676563943
 20
5323.982000481414
 30
0.0
 10
6539.978308431863
 20
5322.098509144336
 30
0.0
 10
6536.262065461708
 20
5320.159532633385
 30
0.0
 10
6532.253511580578
 20
5317.766544837548
 30
0.0
 10
6528.043082818307
 20
5314.766392197054
 30
0.0
 10
6523.977885824888
 20
5311.117904467974
 30
0.0
 10
6521.732389208943
 20
5308.404128479355
 30
0.0
 10
6520.72999816725
 20
5307.192697243682
 30
0.0
  0
SPLINE
  5
13E
330
1F
100
AcDbEntity
  8
0
  6
HIDDEN
 62
     7
370
    18
100
AcDbSpline
210
0.0
220
0.0
230
1.0
 70
     8
 71
     3
 72
    22
 73
    18
 74
     0
 42
0.000000001
 43
0.00000001
 40
0.0
 40
0.0
 40
0.0
 40
0.0
 40
0.0319711826209167
 40
0.0620374311140694
 40
0.1224562184131063
 40
0.1834097600812558
 40
0.2448773636958322
 40
0.2757557752721056
 40
0.327120194378144
 40
0.3784928799368232
 40
0.4851572160842266
 40
0.5970084295219021
 40
0.7125127650722148
 40
0.7763652974687929
 40
0.84619184089974
 40
0.9160696768572897
 40
1.0
 40
1.0
 40
1.0
 40
1.0
 10
6520.675431985569
 20
5300.627464403933
 30
0.0
 10
6521.091637171106
 20
5301.278486440806
 30
0.0
 10
6521.899248851702
 20
5302.541740767211
 30
0.0
 10
6523.633205989991
 20
5304.939985927698
 30
0.0
 10
6525.99337820331
 20
5307.742684152611
 30
0.0
 10
6529.200015220021
 20
5310.786859804498
 30
0.0
 10
6532.136168032632
 20
5313.0451809776
 30
0.0
 10
6535.017357812944
 20
5314.973036551345
 30
0.0
 10
6537.786167318415
 20
5316.625229547196
 30
0.0
 10
6542.260236581948
 20
5318.968832324393
 30
0.0
 10
6548.235409095419
 20
5321.565869312702
 30
0.0
 10
6555.850110634771
 20
5324.197952280134
 30
0.0
 10
6562.620516999405
 20
5326.062405659103
 30
0.0
 10
6568.471672015348
 20
5327.415706950697
 30
0.0
 10
6573.281073767181
 20
5328.383868521488
 30
0.0
 10
6578.589848677856
 20
5329.315252122237
 30
0.0
 10
6582.260234211295
 20
5329.831639415412
 30
0.0
 10
6584.263097035232
 20
5330.113422596723
 30
0.0
  0
SPLINE
  5
13F
330
1F
100
AcDbEntity
  8
0
  6
HIDDEN
 62
     7
370
    18
100
AcDbSpline
210
0.0
220
0.0
230
1.0
 70
     8
 71
     3
 72
    17
 73
    13
 74
     0
 42
0.000000001
 43
0.00000001
 40
0.0
 40
0.0
 40
0.0
 40
0.0
 40
0.1437890110848735
 40
0.2161874264739
 40
0.2454213302263905
 40
0.2748718268687955
 40
0.3012441881781435
 40
0.3434070556579821
 40
0.4471577580929475
 40
0.6487859319550062
 40
0.8513491314233853
 40
1.0
 40
1.0
 40
1.0
 40
1.0
 10
6520.72999816725
 20
5307.192697243682
 30
0.0
 10
6521.225284884506
 20
5307.444409810949
 30
0.0
 10
6521.969950697022
 20
5307.822860790741
 30
0.0
 10
6522.905593518219
 20
5307.960996067285
 30
0.0
 10
6523.359395306097
 20
5307.849619274441
 30
0.0
 10
6523.592366042678
 20
5307.677767893204
 30
0.0
 10
6523.749114325665
 20
5307.3963015619
 30
0.0
 10
6523.816719630488
 20
5306.820009121563
 30
0.0
 10
6523.49427895168
 20
5305.627832566053
 30
0.0
 10
6522.704259255267
 20
5303.966792086288
 30
0.0
 10
6521.65181794727
 20
5302.214088272861
 30
0.0
 10
6520.965791662033
 20
5301.099297891225
 30
0.0
 10
6520.675431985569
 20
5300.627464403933
 30
0.0
  0
SPLINE
  5
140
330
1F
100
AcDbEntity
  8
0
  6
HIDDEN
 62
     7
370
    18
100
AcDbSpline
210
0.0
220
0.0
230
1.0
 70
     8
 71
     3
 72
    39
 73
    35
 74
     0
 42
0.000000001
 43
0.00000001
 40
0.0
 40
0.0
 40
0.0
 40
0.0
 40
0.0280310304248356
 40
0.0562736935661305
 40
0.0851586811041321
 40
0.1142543754363426
 40
0.1422810673772137
 40
0.1704865618695045
 40
0.1992455661041752
 40
0.2281931734004257
 40
0.257614777588072
 40
0.2872472949484483
 40
0.3175794030559382
 40
0.3481721555492396
 40
0.376145585548015
 40
0.4043608697280797
 40
0.4334110278704729
 40
0.4627825351897436
 40
0.5111876219112219
 40
0.5604442510739904
 40
0.6042732406049807
 40
0.6486827190491319
 40
0.6944968399123241
 40
0.7408368632964031
 40
0.7663830271869555
 40
0.7920827837217393
 40
0.8180899919650384
 40
0.8442498674216511
 40
0.8721497417028358
 40
0.900434170185426
 40
0.9289146288900351
 40
0.9578015477963944
 40
0.9788578674436123
 40
1.0
 40
1.0
 40
1.0
 40
1.0
 10
6508.638362266455
 20
5253.859086745778
 30
0.0
 10
6508.588690434122
 20
5253.855090483002
 30
0.0
 10
6508.488971749889
 20
5253.84706778589
 30
0.0
 10
6508.323680405086
 20
5253.782641078052
 30
0.0
 10
6508.147523085439
 20
5253.679710681205
 30
0.0
 10
6507.963631167548
 20
5253.536508499351
 30
0.0
 10
6507.775519723456
 20
5253.357441364396
 30
0.0
 10
6507.584502379232
 20
5253.143980153731
 30
0.0
 10
6507.389872964939
 20
5252.89377260314
 30
0.0
 10
6507.193297905683
 20
5252.606060950732
 30
0.0
 10
6506.998185665072
 20
5252.282183888312
 30
0.0
 10
6506.8064324433
 20
5251.920491551972
 30
0.0
 10
6506.621979067098
 20
5251.522028769065
 30
0.0
 10
6506.454167144962
 20
5251.100826191854
 30
0.0
 10
6506.306277898007
 20
5250.663784262418
 30
0.0
 10
6506.179045158347
 20
5250.212573368683
 30
0.0
 10
6506.071513578579
 20
5249.734455365488
 30
0.0
 10
6505.969992451147
 20
5249.125964376808
 30
0.0
 10
6505.903319361521
 20
5248.38111340778
 30
0.0
 10
6505.910834930088
 20
5247.551337946861
 30
0.0
 10
6505.990850292723
 20
5246.772415721435
 30
0.0
 10
6506.128154232222
 20
5246.057206038474
 30
0.0
 10
6506.318303961731
 20
5245.390313289082
 30
0.0
 10
6506.515215676533
 20
5244.879541912364
 30
0.0
 10
6506.692569407367
 20
5244.502424273289
 30
0.0
 10
6506.839041922051
 20
5244.230832182592
 30
0.0
 10
6506.990883160612
 20
5243.98563940982
 30
0.0
 10
6507.149497932824
 20
5243.764166582955
 30
0.0
 10
6507.313409420973
 20
5243.570115524887
 30
0.0
 10
6507.480796661978
 20
5243.407911949207
 30
0.0
 10
6507.647154111001
 20
5243.282938950186
 30
0.0
 10
6507.795013231182
 20
5243.206618822942
 30
0.0
 10
6507.924822246538
 20
5243.165902399232
 30
0.0
 10
6507.998472744566
 20
5243.161361708178
 30
0.0
 10
6508.03537287978
 20
5243.159086745778
 30
0.0
  0
SPLINE
  5
141
330
1F
100
AcDbEntity
  8
0
  6
HIDDEN
 62
     7
370
    18
100
AcDbSpline
210
0.0
220
0.0
230
1.0
 70
     8
 71
     3
 72
    28
 73
    24
 74
     0
 42
0.000000001
 43
0.00000001
 40
0.0
 40
0.0
 40
0.0
 40
0.0
 40
0.0460881944490285
 40
0.0924720006175495
 40
0.1435675960117981
 40
0.1950151973640257
 40
0.2474834968708786
 40
0.3002661327909467
 40
0.3441169395540697
 40
0.3881429661398776
 40
0.432673975028545
 40
0.4773572210487867
 40
0.5181260936569811
 40
0.5589717637362449
 40
0.6020453142086368
 40
0.6451730797322467
 40
0.6901592551717035
 40
0.735180398373248
 40
0.8251897628073415
 40
0.9079264524817289
 40
0.9685444480505258
 40
0.9932280946388253
 40
1.0
 40
1.0
 40
1.0
 40
1.0
 10
6520.72999816725
 20
5307.192697243682
 30
0.0
 10
6519.50186431222
 20
5306.473041014207
 30
0.0
 10
6517.037719297245
 20
5305.029112648345
 30
0.0
 10
6513.45194694445
 20
5302.410169510576
 30
0.0
 10
6509.948547484804
 20
5299.422094206177
 30
0.0
 10
6506.573977732741
 20
5296.014720828056
 30
0.0
 10
6503.446042222748
 20
5292.310401751384
 30
0.0
 10
6500.744437302351
 20
5288.569146603732
 30
0.0
 10
6498.44696694429
 20
5284.871717024385
 30
0.0
 10
6496.508140326057
 20
5281.2605684999
 30
0.0
 10
6494.783888588435
 20
5277.513171589899
 30
0.0
 10
6493.315400506151
 20
5273.766103334183
 30
0.0
 10
6492.071587420487
 20
5270.058972643863
 30
0.0
 10
6490.999633563199
 20
5266.35025440603
 30
0.0
 10
6490.053251353504
 20
5262.532061631182
 30
0.0
 10
6489.212386205215
 20
5258.558106201677
 30
0.0
 10
6488.482861373161
 20
5254.500839848581
 30
0.0
 10
6487.644920517901
 20
5248.990291709614
 30
0.0
 10
6486.863997898871
 20
5242.291232813596
 30
0.0
 10
6486.25808744496
 20
5235.090511052206
 30
0.0
 10
6485.925468665963
 20
5229.898065973941
 30
0.0
 10
6485.770027451103
 20
5227.051455807436
 30
0.0
 10
6485.72044437994
 20
5226.078769849059
 30
0.0
 10
6485.709769893414
 20
5225.869365249614
 30
0.0
  0
SPLINE
  5
142
330
1F
100
AcDbEntity
  8
0
  6
HIDDEN
 62
     7
370
    18
100
AcDbSpline
210
0.0
220
0.0
230
1.0
 70
     8
 71
     3
 72
    11
 73
     7
 74
     0
 42
0.000000001
 43
0.00000001
 40
0.0
 40
0.0
 40
0.0
 40
0.0
 40
0.2470504356598415
 40
0.4951790707133832
 40
0.7469060824588608
 40
0.9999999999999999
 40
0.9999999999999999
 40
0.9999999999999999
 40
0.9999999999999999
 10
6600.118755918596
 20
5331.704298843523
 30
0.0
 10
6599.948551998996
 20
5331.695600675744
 30
0.0
 10
6599.607401340772
 20
5331.67816637887
 30
0.0
 10
6599.059444828392
 20
5331.69697635685
 30
0.0
 10
6598.486708589014
 20
5331.749412661025
 30
0.0
 10
6598.085985060901
 20
5331.822589874908
 30
0.0
 10
6597.885080776437
 20
5331.859277552978
 30
0.0
  0
SPLINE
  5
143
330
1F
100
AcDbEntity
  8
0
  6
HIDDEN
 62
     7
370
    18
100
AcDbSpline
210
0.0
220
0.0
230
1.0
 70
     8
 71
     3
 72
    12
 73
     8
 74
     0
 42
0.000000001
 43
0.00000001
 40
0.0
 40
0.0
 40
0.0
 40
0.0
 40
0.2950743028023902
 40
0.5914108835373646
 40
0.7810991940340416
 40
0.9711198578588217
 40
1.0
 40
1.0
 40
1.0
 40
1.0
 10
6597.756993807087
 20
5331.528480030993
 30
0.0
 10
6597.993308750718
 20
5331.546896330472
 30
0.0
 10
6598.466949553315
 20
5331.583807711244
 30
0.0
 10
6599.084853611277
 20
5331.62995947018
 30
0.0
 10
6599.613173081513
 20
5331.668444265446
 30
0.0
 10
6599.928896698659
 20
5331.690945245387
 30
0.0
 10
6600.096626851367
 20
5331.702742413075
 30
0.0
 10
6600.118755918596
 20
5331.704298843523
 30
0.0
  0
ARC
  5
144
330
1F
100
AcDbEntity
  8
0
  6
HIDDEN
 62
     7
370
    18
100
AcDbCircle
 10
6597.4789299769
 20
5331.8263449873
 30
0.0
 40
0.4074837736953152
100
AcDbArc
 50
313.0308776479
 51
4.6356624095
  0
LINE
  5
145
330
1F
100
AcDbEntity
  8
0
  6
HIDDEN
 62
     7
370
    18
100
AcDbLine
 10
6589.7073559678
 20
5334.9486144727
 30
0.0
 11
6589.7757058635
 21
5334.9613139892
 31
0.0
  0
SPLINE
  5
146
330
1F
100
AcDbEntity
  8
0
  6
HIDDEN
 62
     7
370
    18
100
AcDbSpline
210
0.0
220
0.0
230
1.0
 70
     8
 71
     3
 72
    12
 73
     8
 74
     0
 42
0.000000001
 43
0.00000001
 40
0.0
 40
0.0
 40
0.0
 40
0.0
 40
0.2155134481816608
 40
0.4357255380060994
 40
0.7731190794095318
 40
0.9393752827041448
 40
1.0
 40
1.0
 40
1.0
 40
1.0
 10
6597.885080776437
 20
5331.859277552978
 30
0.0
 10
6597.347948805621
 20
5331.988298243342
 30
0.0
 10
6596.261974269282
 20
5332.249152543608
 30
0.0
 10
6594.20204979183
 20
5332.978060028589
 30
0.0
 10
6592.174481451816
 20
5333.700560715094
 30
0.0
 10
6590.587333213611
 20
5334.433157493698
 30
0.0
 10
6589.89291188294
 20
5334.535270283831
 30
0.0
 10
6589.707355967764
 20
5334.5625557824
 30
0.0
  0
LINE
  5
147
330
1F
100
AcDbEntity
  8
0
  6
HIDDEN
 62
     7
370
    18
100
AcDbLine
 10
6592.0119392179
 20
5331.014984262
 30
0.0
 11
6597.7569938071
 21
5331.528480031
 31
0.0
  0
LINE
  5
148
330
1F
100
AcDbEntity
  8
0
  6
HIDDEN
 62
     7
370
    18
100
AcDbLine
 10
6584.2630970352
 20
5330.1134225967
 30
0.0
 11
6589.6127376611
 21
5330.7626071672
 31
0.0
  0
ARC
  5
149
330
1F
100
AcDbEntity
  8
0
  6
HIDDEN
 62
     7
370
    18
100
AcDbCircle
 10
6362.5630320955
 20
5167.4124911472
 30
0.0
 40
208.5903317796113
100
AcDbArc
 50
46.367671326
 51
49.0066708302
  0
SPLINE
  5
14A
330
1F
100
AcDbEntity
  8
0
  6
HIDDEN
 62
     7
370
    18
100
AcDbSpline
210
0.0
220
0.0
230
1.0
 70
     8
 71
     3
 72
    16
 73
    12
 74
     0
 42
0.000000001
 43
0.00000001
 40
0.0
 40
0.0
 40
0.0
 40
0.0
 40
0.1644851507796755
 40
0.2816155642885398
 40
0.3987144118379372
 40
0.518776009035534
 40
0.6388255861444493
 40
0.7281323027706429
 40
0.8174334986596338
 40
0.9087209718310569
 40
1.0
 40
1.0
 40
1.0
 40
1.0
 10
6485.70977006983
 20
5264.828979149052
 30
0.0
 10
6485.979901179189
 20
5268.036620514099
 30
0.0
 10
6486.44239353448
 20
5273.528433779742
 30
0.0
 10
6487.770320733084
 20
5281.220751676328
 30
0.0
 10
6489.409358237027
 20
5287.959088610226
 30
0.0
 10
6491.632333452689
 20
5294.590113166918
 30
0.0
 10
6494.209618787782
 20
5300.50093379236
 30
0.0
 10
6496.964322640802
 20
5305.652312418471
 30
0.0
 10
6499.780221295301
 20
5310.114735746965
 30
0.0
 10
6502.920572993434
 20
5314.407296340372
 30
0.0
 10
6505.304367959163
 20
5317.060173625461
 30
0.0
 10
6506.49621030827
 20
5318.38655091076
 30
0.0
  0
LINE
  5
14B
330
1F
100
AcDbEntity
  8
0
  6
HIDDEN
 62
     7
370
    18
100
AcDbLine
 10
6589.7073559678
 20
5334.5625557824
 30
0.0
 11
6589.7073559678
 21
5334.9486144727
 31
0.0
  0
LINE
  5
14C
330
1F
100
AcDbEntity
  8
0
  6
HIDDEN
 62
     7
370
    18
100
AcDbLine
 10
6589.7073559678
 20
5334.9486144727
 30
0.0
 11
6589.7073559678
 21
5334.5625557824
 31
0.0
  0
LWPOLYLINE
  5
14D
330
1F
100
AcDbEntity
  8
0
  6
HIDDEN
 62
     7
370
    18
100
AcDbPolyline
 90
        9
 70
   128
 43
0.0
 10
6483.0175771754
 20
5265.0117673922
 10
6483.3535151776
 20
5264.9891221092
 10
6483.689962049
 20
5264.9663956345
 10
6484.0267472128
 20
5264.9435994904
 10
6484.3636999206
 20
5264.9207452343
 10
6484.700649339
 20
5264.8978444533
 10
6485.0374246365
 20
5264.8749087579
 10
6485.3738550696
 20
5264.8519497765
 10
6485.7097700698
 20
5264.8289791491
  0
SPLINE
  5
14E
330
1F
100
AcDbEntity
  8
0
  6
HIDDEN
 62
     7
370
    18
100
AcDbSpline
210
0.0
220
0.0
230
1.0
 70
     8
 71
     3
 72
    14
 73
    10
 74
     0
 42
0.000000001
 43
0.00000001
 40
0.0
 40
0.0
 40
0.0
 40
0.0
 40
0.1397185596294883
 40
0.2152564120502435
 40
0.3500113245832075
 40
0.4487314189765427
 40
0.6382432288129051
 40
0.7507442430709683
 40
1.0
 40
1.0
 40
1.0
 40
1.0
 10
6483.439478053094
 20
5232.008608335013
 30
0.0
 10
6483.458688279996
 20
5233.542123135635
 30
0.0
 10
6483.488284380388
 20
5235.904721881881
 30
0.0
 10
6483.579019544846
 20
5239.745581181398
 30
0.0
 10
6483.690858563325
 20
5243.135722133068
 30
0.0
 10
6483.906140841432
 20
5247.773760668443
 30
0.0
 10
6484.198889550536
 20
5252.163082200108
 30
0.0
 10
6484.742911817838
 20
5258.190678777924
 30
0.0
 10
6485.315351012357
 20
5262.120958433291
 30
0.0
 10
6485.70977006983
 20
5264.828979149052
 30
0.0
  0
LINE
  5
14F
330
1F
100
AcDbEntity
  8
0
  6
HIDDEN
 62
     7
370
    18
100
AcDbLine
 10
6485.7097700698
 20
5225.8693652496
 30
0.0
 11
6485.7097700698
 21
5225.8590867458
 31
0.0
  0
LINE
  5
150
330
1F
100
AcDbEntity
  8
0
  6
HIDDEN
 62
     7
370
    18
100
AcDbLine
 10
6483.4223861946
 20
5225.8590867458
 30
0.0
 11
6485.7097926565
 21
5225.8590867458
 31
0.0
  0
SPLINE
  5
151
330
1F
100
AcDbEntity
  8
0
  6
HIDDEN
 62
     7
370
    18
100
AcDbSpline
210
0.0
220
0.0
230
1.0
 70
     8
 71
     3
 72
    11
 73
     7
 74
     0
 42
0.000000001
 43
0.00000001
 40
0.0
 40
0.0
 40
0.0
 40
0.0
 40
0.3330286671204014
 40
0.5059366348517412
 40
0.9175345127018566
 40
0.9999999999999999
 40
0.9999999999999999
 40
0.9999999999999999
 40
0.9999999999999999
 10
6483.422386195125
 20
5225.859086745568
 30
0.0
 10
6483.417564624233
 20
5226.541747082005
 30
0.0
 10
6483.410239701208
 20
5227.578843606908
 30
0.0
 10
6483.419797322699
 20
5229.459666558103
 30
0.0
 10
6483.427917092702
 20
5230.826851174165
 30
0.0
 10
6483.437824397377
 20
5231.83957224996
 30
0.0
 10
6483.439478053094
 20
5232.008608335013
 30
0.0
  0
LINE
  5
152
330
1F
100
AcDbEntity
  8
0
  6
HIDDEN
 62
     7
370
    18
100
AcDbLine
 10
6483.4052943191
 20
5232.0087498964
 30
0.0
 11
6483.4394780531
 21
5232.008608335
 31
0.0
  0
SPLINE
  5
153
330
1F
100
AcDbEntity
  8
0
  6
HIDDEN
 62
     7
370
    18
100
AcDbSpline
210
0.0
220
0.0
230
1.0
 70
     8
 71
     3
 72
    26
 73
    22
 74
     0
 42
0.000000001
 43
0.00000001
 40
0.0
 40
0.0
 40
0.0
 40
0.0
 40
0.005189912488341
 40
0.0201579023119909
 40
0.0519668133838672
 40
0.0788465203169158
 40
0.1054305201061106
 40
0.1323654895588377
 40
0.183503067831923
 40
0.2540076142100869
 40
0.3070662084568203
 40
0.3603052641692314
 40
0.4676835576308095
 40
0.5772131958868753
 40
0.6872731909785962
 40
0.7467643953532606
 40
0.8064600888051622
 40
0.8542222353911865
 40
0.9022895521845972
 40
0.9510758407034429
 40
0.9999999999999999
 40
0.9999999999999999
 40
0.9999999999999999
 40
0.9999999999999999
 10
6467.703397055524
 20
5297.864277017571
 30
0.0
 10
6467.699922638
 20
5297.859195883015
 30
0.0
 10
6467.686427811414
 20
5297.839460480101
 30
0.0
 10
6467.761332898569
 20
5297.949050150593
 30
0.0
 10
6467.970016779735
 20
5298.253410822955
 30
0.0
 10
6468.377264722089
 20
5298.839230099159
 30
0.0
 10
6468.849747897772
 20
5299.507740348601
 30
0.0
 10
6469.5540429844
 20
5300.485765595678
 30
0.0
 10
6470.690993770906
 20
5302.018859138631
 30
0.0
 10
6472.193118672913
 20
5303.942249841548
 30
0.0
 10
6473.833291528686
 20
5305.926133431969
 30
0.0
 10
6475.923308251625
 20
5308.334444956207
 30
0.0
 10
6478.746381625693
 20
5311.366428785361
 30
0.0
 10
6482.41286770405
 20
5314.92812382551
 30
0.0
 10
6485.759818152306
 20
5317.793642808598
 30
0.0
 10
6488.6647582096
 20
5319.953303679725
 30
0.0
 10
6490.869788626026
 20
5321.388185595786
 30
0.0
 10
6493.005060850269
 20
5322.567184778663
 30
0.0
 10
6495.063757290909
 20
5323.473270531676
 30
0.0
 10
6497.194225315924
 20
5324.219921208351
 30
0.0
 10
6498.65890155122
 20
5324.64213828354
 30
0.0
 10
6499.392273007964
 20
5324.853544698167
 30
0.0
  0
LINE
  5
154
330
1F
100
AcDbEntity
  8
0
  6
HIDDEN
 62
     7
370
    18
100
AcDbLine
 10
6485.7097700698
 20
5264.8289791491
 30
0.0
 11
6485.7097700698
 21
5225.8693652496
 31
0.0
  0
SPLINE
  5
155
330
1F
100
AcDbEntity
  8
0
  6
Continuous
 62
     7
370
    25
100
AcDbSpline
210
0.0
220
0.0
230
1.0
 70
     8
 71
     3
 72
     9
 73
     5
 74
     0
 42
0.000000001
 43
0.00000001
 40
0.0
 40
0.0
 40
0.0
 40
0.0
 40
0.9261667223567601
 40
1.0
 40
1.0
 40
1.0
 40
1.0
 10
6299.518743485472
 20
5070.78685771509
 30
0.0
 10
6299.518756383982
 20
5070.788688329357
 30
0.0
 10
6299.518770310752
 20
5070.790664878743
 30
0.0
 10
6299.518755893029
 20
5070.806298881779
 30
0.0
 10
6299.518754828521
 20
5070.807453191465
 30
0.0
  0
SPLINE
  5
156
330
1F
100
AcDbEntity
  8
0
  6
Continuous
 62
     7
370
    18
100
AcDbSpline
210
0.0
220
0.0
230
1.0
 70
     8
 71
     3
 72
    66
 73
    62
 74
     0
 42
0.000000001
 43
0.00000001
 40
0.0
 40
0.0
 40
0.0
 40
0.0
 40
0.0279637375372923
 40
0.055970034513034
 40
0.0700609559995278
 40
0.0841627965557776
 40
0.1124326667138486
 40
0.130231627462117
 40
0.1480434087715345
 40
0.1658889949452123
 40
0.1837441161985332
 40
0.2196623030865967
 40
0.255637747850486
 40
0.2922642664703762
 40
0.3289439023686087
 40
0.3473690944087707
 40
0.3658024600949912
 40
0.3842639513323319
 40
0.402737207309854
 40
0.4190847058998648
 40
0.4354495711592327
 40
0.4465235861175369
 40
0.4576145729537032
 40
0.467887339143309
 40
0.4782250933543545
 40
0.4825787654386411
 40
0.4869643547275753
 40
0.4901700310161216
 40
0.4934320210835267
 40
0.4954617553666029
 40
0.4988629346184748
 40
0.5025563153975221
 40
0.5037336518779955
 40
0.5061929816797729
 40
0.508723076090048
 40
0.5135082674043928
 40
0.5184119622041805
 40
0.5261849857591578
 40
0.5340306668123289
 40
0.5419911052653255
 40
0.5499675942989335
 40
0.5676183684615627
 40
0.5853139051956472
 40
0.6030893885838261
 40
0.6208794859994523
 40
0.6388313690663
 40
0.6567921003849657
 40
0.6927661975863303
 40
0.7242056826543739
 40
0.7556785181891119
 40
0.7872543204385359
 40
0.81886820314726
 40
0.8509858982709025
 40
0.867071448682486
 40
0.8831657600323599
 40
0.8993677757302104
 40
0.915582027375497
 40
0.9318384441322505
 40
0.9481113781762484
 40
0.974035870684407
 40
0.9999999999999999
 40
0.9999999999999999
 40
0.9999999999999999
 40
0.9999999999999999
 10
6282.593990845648
 20
5056.308287484585
 30
0.0
 10
6282.482897639889
 20
5057.04774484619
 30
0.0
 10
6282.260542149956
 20
5058.527784987275
 30
0.0
 10
6281.993304736475
 20
5060.328704317884
 30
0.0
 10
6281.797426331078
 20
5061.74026639592
 30
0.0
 10
6281.612620577707
 20
5063.131440298447
 30
0.0
 10
6281.41643810765
 20
5064.57056949065
 30
0.0
 10
6281.21173468904
 20
5066.05231100069
 30
0.0
 10
6281.040949257848
 20
5067.263945643598
 30
0.0
 10
6280.869498885923
 20
5068.449747451664
 30
0.0
 10
6280.637436845119
 20
5070.001936037664
 30
0.0
 10
6280.33795492645
 20
5071.884070996537
 30
0.0
 10
6279.948598848708
 20
5074.063968477629
 30
0.0
 10
6279.514693742604
 20
5076.165707425283
 30
0.0
 10
6279.100691869429
 20
5077.851945416248
 30
0.0
 10
6278.729061101091
 20
5079.155788684018
 30
0.0
 10
6278.427142525535
 20
5080.111858671296
 30
0.0
 10
6278.098394139197
 20
5081.043073786004
 30
0.0
 10
6277.750850402897
 20
5081.913458837858
 30
0.0
 10
6277.380275030113
 20
5082.724847278452
 30
0.0
 10
6277.024484714921
 20
5083.39756070319
 30
0.0
 10
6276.671029917599
 20
5083.971518812986
 30
0.0
 10
6276.336885702042
 20
5084.440748174783
 30
0.0
 10
6275.961535523517
 20
5084.882651564948
 30
0.0
 10
6275.61083167726
 20
5085.213618985558
 30
0.0
 10
6275.291170065407
 20
5085.448888276575
 30
0.0
 10
6275.064699132431
 20
5085.586567336539
 30
0.0
 10
6274.830917129852
 20
5085.699195203324
 30
0.0
 10
6274.623729626249
 20
5085.774755302564
 30
0.0
 10
6274.389155095621
 20
5085.834589099882
 30
0.0
 10
6274.116989915907
 20
5085.872300773002
 30
0.0
 10
6273.858171112436
 20
5085.863135806924
 30
0.0
 10
6273.644101962216
 20
5085.831418978962
 30
0.0
 10
6273.473420209786
 20
5085.792102149097
 30
0.0
 10
6273.228323666774
 20
5085.710215409576
 30
0.0
 10
6272.96257043905
 20
5085.583601429018
 30
0.0
 10
6272.639491589856
 20
5085.379391052617
 30
0.0
 10
6272.319597292242
 20
5085.117590081435
 30
0.0
 10
6272.005451632414
 20
5084.800034266922
 30
0.0
 10
6271.726182160874
 20
5084.467630961873
 30
0.0
 10
6271.371235981786
 20
5083.984926012992
 30
0.0
 10
6270.975366408139
 20
5083.339281438554
 30
0.0
 10
6270.555977592655
 20
5082.517005788252
 30
0.0
 10
6270.182848886775
 20
5081.66492853361
 30
0.0
 10
6269.843763951933
 20
5080.782907942217
 30
0.0
 10
6269.532163515471
 20
5079.873015217398
 30
0.0
 10
6269.147146917976
 20
5078.622859409094
 30
0.0
 10
6268.738963238079
 20
5077.082607996564
 30
0.0
 10
6268.322266578909
 20
5075.221144130211
 30
0.0
 10
6267.962027138496
 20
5073.373205404571
 30
0.0
 10
6267.629218682824
 20
5071.450774150597
 30
0.0
 10
6267.313161567855
 20
5069.440479285908
 30
0.0
 10
6267.056957082461
 20
5067.689910049785
 30
0.0
 10
6266.851561387951
 20
5066.235959693516
 30
0.0
 10
6266.696550373063
 20
5065.118890633584
 30
0.0
 10
6266.540083216824
 20
5063.974634994775
 30
0.0
 10
6266.380819918337
 20
5062.801118670405
 30
0.0
 10
6266.221377831746
 20
5061.598624534639
 30
0.0
 10
6266.014471807502
 20
5060.124884553355
 30
0.0
 10
6265.752682977582
 20
5058.367655431109
 30
0.0
 10
6265.546626677826
 20
5056.995092958887
 30
0.0
 10
6265.443519826553
 20
5056.308287484585
 30
0.0
  0
SPLINE
  5
157
330
1F
100
AcDbEntity
  8
0
  6
Continuous
 62
     7
370
    18
100
AcDbSpline
210
0.0
220
0.0
230
1.0
 70
     8
 71
     3
 72
    18
 73
    14
 74
     0
 42
0.000000001
 43
0.00000001
 40
0.0
 40
0.0
 40
0.0
 40
0.0
 40
0.0964576595471703
 40
0.252591737872105
 40
0.4089732127022516
 40
0.4877533567322468
 40
0.5665278028057885
 40
0.6457250264129917
 40
0.7249081569550965
 40
0.7931947473096232
 40
0.8614740581772251
 40
0.9307359391301232
 40
1.0
 40
1.0
 40
1.0
 40
1.0
 10
6274.529055607772
 20
4960.109543654979
 30
0.0
 10
6274.807847056005
 20
4963.284733812974
 30
0.0
 10
6275.537912628233
 20
4971.599540577385
 30
0.0
 10
6276.711076807481
 20
4985.053667988455
 30
0.0
 10
6277.823716435899
 20
4997.893940540886
 30
0.0
 10
6278.707706112903
 20
5008.156479439381
 30
0.0
 10
6279.361663104796
 20
5015.866780049509
 30
0.0
 10
6279.999568894892
 20
5023.543449792271
 30
0.0
 10
6280.589167156622
 20
5030.807773281372
 30
0.0
 10
6281.130072181886
 20
5037.620637580049
 30
0.0
 10
6281.624646220343
 20
5043.993589742751
 30
0.0
 10
6282.125378977795
 20
5050.249952460836
 30
0.0
 10
6282.437785250966
 20
5054.288821290749
 30
0.0
 10
6282.593990845648
 20
5056.308287484585
 30
0.0
  0
SPLINE
  5
158
330
1F
100
AcDbEntity
  8
0
  6
Continuous
 62
     7
370
    18
100
AcDbSpline
210
0.0
220
0.0
230
1.0
 70
     8
 71
     3
 72
     9
 73
     5
 74
     0
 42
0.000000001
 43
0.00000001
 40
0.0
 40
0.0
 40
0.0
 40
0.0
 40
0.498135467646052
 40
1.0
 40
1.0
 40
1.0
 40
1.0
 10
6273.508455064429
 20
4960.109543654979
 30
0.0
 10
6273.677919070969
 20
4960.09855352961
 30
0.0
 10
6274.018115699294
 20
4960.076491006293
 30
0.0
 10
6274.358319424378
 20
4960.098498749318
 30
0.0
 10
6274.529055607772
 20
4960.109543654979
 30
0.0
  0
SPLINE
  5
159
330
1F
100
AcDbEntity
  8
0
  6
Continuous
 62
     7
370
    18
100
AcDbSpline
210
0.0
220
0.0
230
1.0
 70
     8
 71
     3
 72
    19
 73
    15
 74
     0
 42
0.000000001
 43
0.00000001
 40
0.0
 40
0.0
 40
0.0
 40
0.0
 40
0.0653015164697704
 40
0.1308110232206924
 40
0.1996772965776559
 40
0.2750877139308265
 40
0.3405400343409846
 40
0.4059993121805514
 40
0.4730425635788339
 40
0.5508718057934514
 40
0.6383558406329071
 40
0.7877248285890067
 40
0.9035433610463021
 40
0.9999999999999999
 40
0.9999999999999999
 40
0.9999999999999999
 40
0.9999999999999999
 10
6265.443519826553
 20
5056.308287484585
 30
0.0
 10
6265.593855259963
 20
5054.404888882668
 30
0.0
 10
6265.895004956537
 20
5050.592029209971
 30
0.0
 10
6266.365728389271
 20
5044.56748746722
 30
0.0
 10
6266.871016057187
 20
5038.088323067341
 30
0.0
 10
6267.395386320678
 20
5031.469113123343
 30
0.0
 10
6267.930225752489
 20
5024.866200108035
 30
0.0
 10
6268.458347198282
 20
5018.473344331202
 30
0.0
 10
6269.03319480478
 20
5011.639256983624
 30
0.0
 10
6269.681474786669
 20
5004.055921481394
 30
0.0
 10
6270.572960048858
 20
4993.754094355474
 30
0.0
 10
6271.577290199633
 20
4982.170332563271
 30
0.0
 10
6272.616148060769
 20
4970.272580662014
 30
0.0
 10
6273.229672860592
 20
4963.284766804491
 30
0.0
 10
6273.508455064429
 20
4960.109543654979
 30
0.0
  0
SPLINE
  5
15A
330
1F
100
AcDbEntity
  8
0
  6
Continuous
 62
     7
370
    25
100
AcDbSpline
210
0.0
220
0.0
230
1.0
 70
    24
 71
     3
 72
    19
 73
    15
 74
     0
 42
0.000000001
 43
0.00000001
 40
0.0
 40
0.0
 40
0.0
 40
0.0
 40
0.1090189288545438
 40
0.2102675604973304
 40
0.3505478487816125
 40
0.4386295838377472
 40
0.5241960112741076
 40
0.6016615730187099
 40
0.704260111018094
 40
0.7633047141298441
 40
0.8224282878823912
 40
0.8815498080346994
 40
0.9407746367205879
 40
1.0
 40
1.0
 40
1.0
 40
1.0
 10
6257.530498649087
 20
4970.120052881803
 30
0.0
 10
6257.267865033195
 20
4973.02082009656
 30
0.0
 10
6256.761316947475
 20
4978.61560305972
 30
0.0
 10
6255.917975715237
 20
4987.93023930313
 30
0.0
 10
6255.126623996903
 20
4996.670655536909
 30
0.0
 10
6254.375378933571
 20
5004.968096984197
 30
0.0
 10
6253.776647395095
 20
5011.581038786596
 30
0.0
 10
6253.146865764073
 20
5018.536926369819
 30
0.0
 10
6252.585141622285
 20
5024.741124445138
 30
0.0
 10
6252.074240242656
 20
5030.38398919026
 30
0.0
 10
6251.669889696868
 20
5034.850008524853
 30
0.0
 10
6251.272709544481
 20
5039.236831439647
 30
0.0
 10
6250.883034353519
 20
5043.540762657688
 30
0.0
 10
6250.630761650126
 20
5046.327094425206
 30
0.0
 10
6250.504624729147
 20
5047.72026659665
 30
0.0
  0
LWPOLYLINE
  5
15B
330
1F
100
AcDbEntity
  8
0
  6
Continuous
 62
     7
370
    18
100
AcDbPolyline
 90
       14
 70
   128
 43
0.0
 10
6250.5046247291
 20
5047.7202665966
 10
6250.5391002712
 20
5048.6204099234
 10
6250.8031068693
 20
5049.5275205277
 10
6251.2925787687
 20
5050.4276287241
 10
6251.999978004
 20
5051.3068726654
 10
6252.9144104846
 20
5052.1517118182
 10
6254.0217937667
 20
5052.9491354898
 10
6255.3050739251
 20
5053.6868631955
 10
6256.7444881877
 20
5054.3535337804
 10
6258.3178692855
 20
5054.9388803834
 10
6260.0009868334
 20
5055.4338885494
 10
6261.767920483
 20
5055.8309350529
 10
6263.5914591011
 20
5056.1239052982
 10
6265.4435198266
 20
5056.3082874846
  0
SPLINE
  5
15C
330
1F
100
AcDbEntity
  8
0
  6
Continuous
 62
     7
370
    25
100
AcDbSpline
210
0.0
220
0.0
230
1.0
 70
    24
 71
     3
 72
    11
 73
     7
 74
     0
 42
0.000000001
 43
0.00000001
 40
0.0
 40
0.0
 40
0.0
 40
0.0
 40
0.2499468042072253
 40
0.4999148768259782
 40
0.7499467931627407
 40
1.0
 40
1.0
 40
1.0
 40
1.0
 10
6258.056192047533
 20
4964.509134827608
 30
0.0
 10
6258.058537262828
 20
4964.509361100742
 30
0.0
 10
6258.063227892977
 20
4964.509813666266
 30
0.0
 10
6258.071896049123
 20
4964.510649994942
 30
0.0
 10
6258.081652786284
 20
4964.511591353057
 30
0.0
 10
6258.089244688475
 20
4964.512323841655
 30
0.0
 10
6258.093040801178
 20
4964.512690101546
 30
0.0
  0
SPLINE
  5
15D
330
1F
100
AcDbEntity
  8
0
  6
Continuous
 62
     7
370
    25
100
AcDbSpline
210
0.0
220
0.0
230
1.0
 70
     8
 71
     3
 72
    11
 73
     7
 74
     0
 42
0.000000001
 43
0.00000001
 40
0.0
 40
0.0
 40
0.0
 40
0.0
 40
0.2499694202069399
 40
0.4999515036379302
 40
0.7499700078387053
 40
0.9999999999999999
 40
0.9999999999999999
 40
0.9999999999999999
 40
0.9999999999999999
 10
6257.530498649087
 20
4970.120052881803
 30
0.0
 10
6257.572995156906
 20
4969.653283892116
 30
0.0
 10
6257.657990325378
 20
4968.719722266648
 30
0.0
 10
6257.788609326931
 20
4967.317533069547
 30
0.0
 10
6257.921118726753
 20
4965.914139564328
 30
0.0
 10
6258.011166917693
 20
4964.977476912715
 30
0.0
 10
6258.056192047533
 20
4964.509134827608
 30
0.0
  0
LWPOLYLINE
  5
15E
330
1F
100
AcDbEntity
  8
0
  6
Continuous
 62
     7
370
    18
100
AcDbPolyline
 90
       14
 70
   128
 43
0.0
 10
6282.5939908456
 20
5056.3082874846
 10
6284.4460515711
 20
5056.1239052982
 10
6286.2695901892
 20
5055.8309350529
 10
6288.0365238388
 20
5055.4338885494
 10
6289.7196413867
 20
5054.9388803834
 10
6291.2930224845
 20
5054.3535337804
 10
6292.7324367471
 20
5053.6868631955
 10
6294.0157169055
 20
5052.9491354898
 10
6295.1231001876
 20
5052.1517118182
 10
6296.0375326682
 20
5051.3068726654
 10
6296.7449319035
 20
5050.4276287241
 10
6297.2344038029
 20
5049.5275205277
 10
6297.498410401
 20
5048.6204099234
 10
6297.5328859431
 20
5047.7202665966
  0
SPLINE
  5
15F
330
1F
100
AcDbEntity
  8
0
  6
Continuous
 62
     7
370
    25
100
AcDbSpline
210
0.0
220
0.0
230
1.0
 70
    24
 71
     3
 72
    19
 73
    15
 74
     0
 42
0.000000001
 43
0.00000001
 40
0.0
 40
0.0
 40
0.0
 40
0.0
 40
0.0736603454748764
 40
0.1473176486969942
 40
0.2215174197464059
 40
0.295726477974295
 40
0.3828071525199404
 40
0.4701014550682042
 40
0.5575988771045417
 40
0.6457224892759706
 40
0.7338966069561422
 40
0.8225138583615083
 40
0.9112415984430944
 40
1.0
 40
1.0
 40
1.0
 40
1.0
 10
6297.532885943053
 20
5047.72026659665
 30
0.0
 10
6297.375731620964
 20
5045.984509718671
 30
0.0
 10
6297.06142946743
 20
5042.51306765137
 30
0.0
 10
6296.57116551193
 20
5037.098141599889
 30
0.0
 10
6296.068081700815
 20
5031.541621271768
 30
0.0
 10
6295.523842208027
 20
5025.530539741744
 30
0.0
 10
6294.940726396493
 20
5019.09007239046
 30
0.0
 10
6294.320329547289
 20
5012.237838969425
 30
0.0
 10
6293.693629362327
 20
5005.315985710697
 30
0.0
 10
6293.062425983598
 20
4998.344395038115
 30
0.0
 10
6292.426972291801
 20
4991.32585999874
 30
0.0
 10
6291.788825579114
 20
4984.277580759724
 30
0.0
 10
6291.148423272981
 20
4977.204388672056
 30
0.0
 10
6290.720840395314
 20
4972.481770095942
 30
0.0
 10
6290.507012023113
 20
4970.120052881803
 30
0.0
  0
SPLINE
  5
160
330
1F
100
AcDbEntity
  8
0
  6
Continuous
 62
     7
370
    25
100
AcDbSpline
210
0.0
220
0.0
230
1.0
 70
     8
 71
     3
 72
    11
 73
     7
 74
     0
 42
0.000000001
 43
0.00000001
 40
0.0
 40
0.0
 40
0.0
 40
0.0
 40
0.249970059417694
 40
0.4999516758326459
 40
0.7499694598132671
 40
1.0
 40
1.0
 40
1.0
 40
1.0
 10
6289.974720242103
 20
4964.440771041431
 30
0.0
 10
6290.02031095954
 20
4964.914713188973
 30
0.0
 10
6290.111494502231
 20
4965.862619396075
 30
0.0
 10
6290.245669256975
 20
4967.283003817905
 30
0.0
 10
6290.37793317663
 20
4968.70238686101
 30
0.0
 10
6290.463985009226
 20
4969.647489505032
 30
0.0
 10
6290.507012023113
 20
4970.120052881803
 30
0.0
  0
SPLINE
  5
161
330
1F
100
AcDbEntity
  8
0
  6
Continuous
 62
     7
370
    25
100
AcDbSpline
210
0.0
220
0.0
230
1.0
 70
     8
 71
     3
 72
    12
 73
     8
 74
     0
 42
0.000000001
 43
0.00000001
 40
0.0
 40
0.0
 40
0.0
 40
0.0
 40
0.0548748889813571
 40
0.1675683913534417
 40
0.2820175841124151
 40
0.6398417266463383
 40
0.9999999999999999
 40
0.9999999999999999
 40
0.9999999999999999
 40
0.9999999999999999
 10
6289.974720242103
 20
4964.440771041431
 30
0.0
 10
6289.962430132532
 20
4964.326885126897
 30
0.0
 10
6289.924900509627
 20
4963.97911805437
 30
0.0
 10
6289.854313632452
 20
4963.496690775665
 30
0.0
 10
6289.681603960686
 20
4962.535940442646
 30
0.0
 10
6289.358552343342
 20
4961.237797221268
 30
0.0
 10
6288.92375115041
 20
4960.153184436473
 30
0.0
 10
6288.705643793694
 20
4959.609115028664
 30
0.0
  0
SPLINE
  5
162
330
1F
100
AcDbEntity
  8
0
  6
Continuous
 62
     7
370
    18
100
AcDbSpline
210
0.0
220
0.0
230
1.0
 70
     8
 71
     3
 72
    14
 73
    10
 74
     0
 42
0.000000001
 43
0.00000001
 40
0.0
 40
0.0
 40
0.0
 40
0.0
 40
0.0880349751846699
 40
0.1953287358522676
 40
0.3148460854945593
 40
0.438197539509542
 40
0.6760187621011553
 40
0.855067785213322
 40
1.0
 40
1.0
 40
1.0
 40
1.0
 10
6272.955273092498
 20
4953.570800459015
 30
0.0
 10
6272.708978265066
 20
4953.479798356587
 30
0.0
 10
6272.162508442269
 20
4953.277886268918
 30
0.0
 10
6271.505052320908
 20
4952.795367916863
 30
0.0
 10
6270.934524971395
 20
4952.264213879864
 30
0.0
 10
6270.357149334869
 20
4951.580804607102
 30
0.0
 10
6270.031221355315
 20
4950.959575414081
 30
0.0
 10
6270.178655389016
 20
4950.518710239198
 30
0.0
 10
6270.691368750243
 20
4950.377619002722
 30
0.0
 10
6270.920729819036
 20
4950.314502182988
 30
0.0
  0
SPLINE
  5
163
330
1F
100
AcDbEntity
  8
0
  6
Continuous
 62
     7
370
    25
100
AcDbSpline
210
0.0
220
0.0
230
1.0
 70
     8
 71
     3
 72
    33
 73
    29
 74
     0
 42
0.000000001
 43
0.00000001
 40
0.0
 40
0.0
 40
0.0
 40
0.0
 40
0.010913480680135
 40
0.056610678287082
 40
0.1024992898274936
 40
0.1489697193915423
 40
0.195633828586971
 40
0.2484077273684008
 40
0.3014524522262493
 40
0.3553192350052494
 40
0.4094582002860307
 40
0.4531376399982278
 40
0.4750224123325643
 40
0.4968208898965057
 40
0.5410488923455103
 40
0.5859810422297523
 40
0.6084930294835948
 40
0.6309171234340334
 40
0.6764089616208263
 40
0.7177273195027204
 40
0.7591486589745129
 40
0.8008811365611821
 40
0.8427176352921588
 40
0.9013329528866362
 40
0.9307960406253558
 40
0.9603318992640185
 40
0.9909241519464222
 40
1.0
 40
1.0
 40
1.0
 40
1.0
 10
6270.920729819036
 20
4950.314502182988
 30
0.0
 10
6270.845549941921
 20
4950.329657955655
 30
0.0
 10
6270.455575014423
 20
4950.408274356399
 30
0.0
 10
6269.756047493763
 20
4950.579592115212
 30
0.0
 10
6268.830837981962
 20
4950.864330348847
 30
0.0
 10
6267.92041764433
 20
4951.206503906283
 30
0.0
 10
6266.991107618749
 20
4951.621753172822
 30
0.0
 10
6266.053011539874
 20
4952.116146284354
 30
0.0
 10
6265.112123832892
 20
4952.697789001949
 30
0.0
 10
6264.209681508408
 20
4953.345842481356
 30
0.0
 10
6263.407595949932
 20
4954.010915685271
 30
0.0
 10
6262.811219566882
 20
4954.572016906973
 30
0.0
 10
6262.394709941058
 20
4954.998093587032
 30
0.0
 10
6261.988363124527
 20
4955.437607857302
 30
0.0
 10
6261.500253426084
 20
4956.012242803035
 30
0.0
 10
6261.043929627711
 20
4956.615504940047
 30
0.0
 10
6260.698638623871
 20
4957.114848656021
 30
0.0
 10
6260.366056587779
 20
4957.626233667741
 30
0.0
 10
6259.991707349876
 20
4958.259651195316
 30
0.0
 10
6259.594416368939
 20
4959.024304378016
 30
0.0
 10
6259.248382188228
 20
4959.784333235597
 30
0.0
 10
6258.941467083492
 20
4960.563767807838
 30
0.0
 10
6258.639255814381
 20
4961.467326201011
 30
0.0
 10
6258.415124148659
 20
4962.310262207895
 30
0.0
 10
6258.253803946629
 20
4963.088274232014
 30
0.0
 10
6258.152401852808
 20
4963.690715063452
 30
0.0
 10
6258.090221827444
 20
4964.168223609424
 30
0.0
 10
6258.062411038296
 20
4964.445647779457
 30
0.0
 10
6258.056048079347
 20
4964.509120937155
 30
0.0
  0
SPLINE
  5
164
330
1F
100
AcDbEntity
  8
0
  6
Continuous
 62
     7
370
    25
100
AcDbSpline
210
0.0
220
0.0
230
1.0
 70
     8
 71
     3
 72
    21
 73
    17
 74
     0
 42
0.000000001
 43
0.00000001
 40
0.0
 40
0.0
 40
0.0
 40
0.0
 40
0.0593652785411481
 40
0.1790315389017894
 40
0.2393899449467473
 40
0.2824534872019283
 40
0.3689344361141405
 40
0.456656330732698
 40
0.5456493889208086
 40
0.5903608443063793
 40
0.6334253905526983
 40
0.7199083735610463
 40
0.8076323937975001
 40
0.896627671492618
 40
0.9413402523882581
 40
1.0
 40
1.0
 40
1.0
 40
1.0
 10
6288.705643793694
 20
4959.609115028664
 30
0.0
 10
6288.578367775751
 20
4959.331934831469
 30
0.0
 10
6288.194533623575
 20
4958.496025382774
 30
0.0
 10
6287.568089000891
 20
4957.433291420062
 30
0.0
 10
6286.908046918039
 20
4956.496076458106
 30
0.0
 10
6286.306542285503
 20
4955.727738907033
 30
0.0
 10
6285.564477063398
 20
4954.89225244382
 30
0.0
 10
6284.584073367032
 20
4953.959040428768
 30
0.0
 10
6283.695466657388
 20
4953.246576801087
 30
0.0
 10
6282.951804408045
 20
4952.725094554313
 30
0.0
 10
6282.197705713678
 20
4952.242368120969
 30
0.0
 10
6281.220835598923
 20
4951.699703631504
 30
0.0
 10
6279.986865843653
 20
4951.143216055752
 30
0.0
 10
6278.912263672426
 20
4950.766123446484
 30
0.0
 10
6277.96126556857
 20
4950.496050832408
 30
0.0
 10
6277.442032422222
 20
4950.384091759059
 30
0.0
 10
6277.147387948636
 20
4950.320559370068
 30
0.0
  0
SPLINE
  5
165
330
1F
100
AcDbEntity
  8
0
  6
Continuous
 62
     7
370
    18
100
AcDbSpline
210
0.0
220
0.0
230
1.0
 70
     8
 71
     3
 72
    34
 73
    30
 74
     0
 42
0.000000001
 43
0.00000001
 40
0.0
 40
0.0
 40
0.0
 40
0.0
 40
0.040353574791583
 40
0.07194276325748
 40
0.103766412615987
 40
0.1362709916613816
 40
0.1689861667020778
 40
0.2082685379679916
 40
0.2478478451100292
 40
0.2882721018218719
 40
0.3289531290056891
 40
0.3700886573476356
 40
0.4114534909536681
 40
0.4535118244954666
 40
0.4958016322092154
 40
0.535493759672019
 40
0.5753996467089147
 40
0.6160524341175407
 40
0.6570123497936149
 40
0.6845266774082797
 40
0.7121838241501222
 40
0.7403625197136167
 40
0.7687609911167934
 40
0.8062684912928157
 40
0.8445526524517978
 40
0.8828840534659931
 40
0.9223700220222125
 40
0.9606357595732657
 40
1.0
 40
1.0
 40
1.0
 40
1.0
 10
6277.147387948636
 20
4950.320559370068
 30
0.0
 10
6277.236525197984
 20
4950.340193941865
 30
0.0
 10
6277.395439992036
 20
4950.375198656017
 30
0.0
 10
6277.578549973299
 20
4950.437340556876
 30
0.0
 10
6277.721120379403
 20
4950.502055538956
 30
0.0
 10
6277.835590179152
 20
4950.576005460372
 30
0.0
 10
6277.928260883444
 20
4950.664928578095
 30
0.0
 10
6277.992488564038
 20
4950.771104557844
 30
0.0
 10
6278.023070838136
 20
4950.897856127256
 30
0.0
 10
6278.017576481256
 20
4951.039671923501
 30
0.0
 10
6277.977228467902
 20
4951.19705904929
 30
0.0
 10
6277.903561716106
 20
4951.369241913375
 30
0.0
 10
6277.797363717603
 20
4951.556571285322
 30
0.0
 10
6277.659230978571
 20
4951.758192284753
 30
0.0
 10
6277.492796952374
 20
4951.968317060302
 30
0.0
 10
6277.300438777421
 20
4952.183659337055
 30
0.0
 10
6277.082316476799
 20
4952.402383196291
 30
0.0
 10
6276.831462025548
 20
4952.626701380103
 30
0.0
 10
6276.576515501481
 20
4952.827244083982
 30
0.0
 10
6276.32845649479
 20
4952.999146399919
 30
0.0
 10
6276.09618390359
 20
4953.142526610382
 30
0.0
 10
6275.843388769461
 20
4953.278791931119
 30
0.0
 10
6275.540839515385
 20
4953.417700748727
 30
0.0
 10
6275.180464154857
 20
4953.549400517037
 30
0.0
 10
6274.758002814407
 20
4953.65643767672
 30
0.0
 10
6274.307371067451
 20
4953.71819499184
 30
0.0
 10
6273.848216105021
 20
4953.72470231736
 30
0.0
 10
6273.388592472058
 20
4953.678542271609
 30
0.0
 10
6273.101069085421
 20
4953.607051606063
 30
0.0
 10
6272.955273092498
 20
4953.570800459016
 30
0.0
  0
SPLINE
  5
166
330
1F
100
AcDbEntity
  8
0
  6
Continuous
 62
     7
370
    25
100
AcDbSpline
210
0.0
220
0.0
230
1.0
 70
     8
 71
     3
 72
    15
 73
    11
 74
     0
 42
0.000000001
 43
0.00000001
 40
0.0
 40
0.0
 40
0.0
 40
0.0
 40
0.0082948303950598
 40
0.0704428785762998
 40
0.3468081057169394
 40
0.5041720705774531
 40
0.66167399701844
 40
0.8195996167494001
 40
0.9776729926347951
 40
0.9999999999999999
 40
0.9999999999999999
 40
0.9999999999999999
 40
0.9999999999999999
 10
6274.0187553361
 20
4950.012415785669
 30
0.0
 10
6274.011265966012
 20
4950.012419170038
 30
0.0
 10
6273.947663365035
 20
4950.012447911395
 30
0.0
 10
6273.630543810386
 20
4950.014578469383
 30
0.0
 10
6273.152321450957
 20
4950.031252111198
 30
0.0
 10
6272.549303253292
 20
4950.077353033565
 30
0.0
 10
6272.049408512416
 20
4950.131027597671
 30
0.0
 10
6271.532293209158
 20
4950.203436213865
 30
0.0
 10
6271.152139350243
 20
4950.269316340416
 30
0.0
 10
6270.946215681069
 20
4950.309525723533
 30
0.0
 10
6270.920729819036
 20
4950.314502182988
 30
0.0
  0
SPLINE
  5
167
330
1F
100
AcDbEntity
  8
0
  6
Continuous
 62
     7
370
    25
100
AcDbSpline
210
0.0
220
0.0
230
1.0
 70
     8
 71
     3
 72
    15
 73
    11
 74
     0
 42
0.000000001
 43
0.00000001
 40
0.0
 40
0.0
 40
0.0
 40
0.0
 40
0.0324094770669567
 40
0.1881996392394239
 40
0.3441363632431337
 40
0.5004998013113551
 40
0.6570017042842393
 40
0.9304224952429031
 40
0.9917785163771962
 40
1.0
 40
1.0
 40
1.0
 40
1.0
 10
6277.147387948636
 20
4950.320559370068
 30
0.0
 10
6277.110028524271
 20
4950.313216182934
 30
0.0
 10
6276.893084876179
 20
4950.270574792377
 30
0.0
 10
6276.503077343441
 20
4950.203152605989
 30
0.0
 10
6275.987317209879
 20
4950.130929681941
 30
0.0
 10
6275.487232826377
 20
4950.077252654897
 30
0.0
 10
6274.88399042228
 20
4950.031189830303
 30
0.0
 10
6274.406047328318
 20
4950.014567307985
 30
0.0
 10
6274.089626407794
 20
4950.012447807466
 30
0.0
 10
6274.026244705402
 20
4950.012419169604
 30
0.0
 10
6274.0187553361
 20
4950.012415785669
 30
0.0
  0
ARC
  5
168
330
1F
100
AcDbEntity
  8
0
  6
Continuous
 62
     7
370
    18
100
AcDbCircle
 10
6286.3909351643
 20
5036.341255466
 30
0.0
 40
20.32484080600691
100
AcDbArc
 50
65.4194374761
 51
100.766852158
  0
ARC
  5
169
330
1F
100
AcDbEntity
  8
0
  6
Continuous
 62
     7
370
    18
100
AcDbCircle
 10
6261.6465755078
 20
5036.3412554661
 30
0.0
 40
20.32484080593446
100
AcDbArc
 50
79.2331478418
 51
114.5805625238
  0
SPLINE
  5
16A
330
1F
100
AcDbEntity
  8
0
  6
Continuous
 62
     7
370
    18
100
AcDbSpline
210
0.0
220
0.0
230
1.0
 70
     8
 71
     3
 72
    43
 73
    39
 74
     0
 42
0.000000001
 43
0.00000001
 40
0.0
 40
0.0
 40
0.0
 40
0.0
 40
0.0236514703128513
 40
0.0473514693731656
 40
0.0778361593472288
 40
0.108637498779256
 40
0.1400675471376043
 40
0.1716114331484902
 40
0.2239242472759296
 40
0.2764682231370058
 40
0.3229989752429041
 40
0.3464027979855211
 40
0.3698610753228107
 40
0.39723843385349
 40
0.4248561771090115
 40
0.4449499065356529
 40
0.4655084537247966
 40
0.4816169972070534
 40
0.49165234489369
 40
0.5025761126125763
 40
0.5100603910471454
 40
0.5259654491055241
 40
0.5394058117258067
 40
0.5526983151728958
 40
0.5661663100997968
 40
0.5917360678812071
 40
0.6269896765630774
 40
0.6535199787190784
 40
0.6801405150262082
 40
0.7338316957100388
 40
0.7885985895417542
 40
0.8436306718372836
 40
0.8733774009033562
 40
0.903226378381467
 40
0.9271083563821271
 40
0.9511429252669957
 40
0.9755369936333
 40
1.0
 40
1.0
 40
1.0
 40
1.0
 10
6253.192004490462
 20
5054.824203896983
 30
0.0
 10
6253.427237074531
 20
5055.533348971881
 30
0.0
 10
6253.898184899457
 20
5056.953094165351
 30
0.0
 10
6254.730970183073
 20
5059.230676662079
 30
0.0
 10
6255.608290029886
 20
5061.64595797099
 30
0.0
 10
6256.469443871555
 20
5064.160030870448
 30
0.0
 10
6257.297592111614
 20
5066.593169198381
 30
0.0
 10
6258.300587148274
 20
5069.459872334334
 30
0.0
 10
6259.527264996196
 20
5072.676141256361
 30
0.0
 10
6261.059361957186
 20
5076.023511898289
 30
0.0
 10
6262.516571046594
 20
5078.557192009681
 30
0.0
 10
6263.785950650012
 20
5080.378580684676
 30
0.0
 10
6264.893897238773
 20
5081.760651063403
 30
0.0
 10
6266.202953826473
 20
5083.134190329059
 30
0.0
 10
6267.649609103518
 20
5084.33590879547
 30
0.0
 10
6269.179581936287
 20
5085.297545162873
 30
0.0
 10
6270.651678767037
 20
5085.962277905305
 30
0.0
 10
6272.040967100002
 20
5086.34383617662
 30
0.0
 10
6273.224664648604
 20
5086.509295350365
 30
0.0
 10
6274.161602962608
 20
5086.537695311109
 30
0.0
 10
6275.280433921009
 20
5086.463724860141
 30
0.0
 10
6276.437950630871
 20
5086.243992108904
 30
0.0
 10
6277.647378767006
 20
5085.839817175382
 30
0.0
 10
6278.681564817512
 20
5085.366568741656
 30
0.0
 10
6279.903502242663
 20
5084.662521231007
 30
0.0
 10
6281.423528973256
 20
5083.525441347146
 30
0.0
 10
6282.927414960199
 20
5082.023367476711
 30
0.0
 10
6284.25481868861
 20
5080.383183240881
 30
0.0
 10
6285.697856726533
 20
5078.293169898845
 30
0.0
 10
6287.26415417612
 20
5075.470094845288
 30
0.0
 10
6288.867293727337
 20
5071.803609321087
 30
0.0
 10
6290.096015339665
 20
5068.456658736308
 30
0.0
 10
6291.095067504165
 20
5065.551718698568
 30
0.0
 10
6291.84520611364
 20
5063.346688278213
 30
0.0
 10
6292.585814566926
 20
5061.211416054816
 30
0.0
 10
6293.334991257649
 20
5059.152719613965
 30
0.0
 10
6294.115495058842
 20
5057.022251589006
 30
0.0
 10
6294.601940347127
 20
5055.557575353703
 30
0.0
 10
6294.845506181747
 20
5054.824203896956
 30
0.0
  0
SPLINE
  5
16B
330
1F
100
AcDbEntity
  8
0
  6
Continuous
 62
     7
370
    25
100
AcDbSpline
210
0.0
220
0.0
230
1.0
 70
     8
 71
     3
 72
    10
 73
     6
 74
     0
 42
0.000000001
 43
0.00000001
 40
0.0
 40
0.0
 40
0.0
 40
0.0
 40
0.2337552482909879
 40
0.5379890155562616
 40
1.0
 40
1.0
 40
1.0
 40
1.0
 10
6299.518424833416
 20
5070.828776592677
 30
0.0
 10
6299.51847672914
 20
5070.82688479687
 30
0.0
 10
6299.518596167442
 20
5070.822530818207
 30
0.0
 10
6299.518695613588
 20
5070.816315256654
 30
0.0
 10
6299.518721703416
 20
5070.813193458187
 30
0.0
 10
6299.518737434404
 20
5070.811311154681
 30
0.0
  0
SPLINE
  5
16C
330
1F
100
AcDbEntity
  8
0
  6
Continuous
 62
     7
370
    18
100
AcDbSpline
210
0.0
220
0.0
230
1.0
 70
     8
 71
     3
 72
    19
 73
    15
 74
     0
 42
0.000000001
 43
0.00000001
 40
0.0
 40
0.0
 40
0.0
 40
0.0
 40
0.0519247117691308
 40
0.1505821725420428
 40
0.2299668117385252
 40
0.3097011542388038
 40
0.3751957665517579
 40
0.4256287194750411
 40
0.5342401172851629
 40
0.6512774495794036
 40
0.7473345412904193
 40
0.8437092687545336
 40
0.8957809564626916
 40
1.0
 40
1.0
 40
1.0
 40
1.0
 10
6294.845506181747
 20
5054.824203896956
 30
0.0
 10
6294.988030928239
 20
5055.476781251242
 30
0.0
 10
6295.401354088571
 20
5057.36926196827
 30
0.0
 10
6295.98367200455
 20
5059.955722203278
 30
0.0
 10
6296.5850264596
 20
5062.521247570188
 30
0.0
 10
6297.065327871906
 20
5064.475728829869
 30
0.0
 10
6297.448244835489
 20
5065.958174451685
 30
0.0
 10
6297.853185112026
 20
5067.458438934865
 30
0.0
 10
6298.291873755938
 20
5068.969890567602
 30
0.0
 10
6298.699177155799
 20
5070.189837495992
 30
0.0
 10
6299.000841085368
 20
5070.906667674439
 30
0.0
 10
6299.178691121009
 20
5071.186180739337
 30
0.0
 10
6299.321800502736
 20
5071.29852932885
 30
0.0
 10
6299.377668709269
 20
5071.238757356997
 30
0.0
 10
6299.414923196485
 20
5071.198899729567
 30
0.0
  0
SPLINE
  5
16D
330
1F
100
AcDbEntity
  8
0
  6
Continuous
 62
     7
370
    18
100
AcDbSpline
210
0.0
220
0.0
230
1.0
 70
     8
 71
     3
 72
    18
 73
    14
 74
     0
 42
0.000000001
 43
0.00000001
 40
0.0
 40
0.0
 40
0.0
 40
0.0
 40
0.0860675255696716
 40
0.2154857950650704
 40
0.3021527081105679
 40
0.3455617623072102
 40
0.4587161020696939
 40
0.5729407885590901
 40
0.6886407672104058
 40
0.8055744037626367
 40
0.8418937485987291
 40
0.939029033355877
 40
1.0
 40
1.0
 40
1.0
 40
1.0
 10
6248.622587475716
 20
5071.198899729566
 30
0.0
 10
6248.652866982119
 20
5071.23349376836
 30
0.0
 10
6248.728677265597
 20
5071.320106272957
 30
0.0
 10
6248.913273579631
 20
5071.135383815394
 30
0.0
 10
6249.137386341034
 20
5070.673375110504
 30
0.0
 10
6249.389806965974
 20
5070.031737159742
 30
0.0
 10
6249.728775592635
 20
5069.024817743069
 30
0.0
 10
6250.269674779097
 20
5067.169276946809
 30
0.0
 10
6250.925033877801
 20
5064.685949834044
 30
0.0
 10
6251.5118023671
 20
5062.273485614052
 30
0.0
 10
6252.103804837407
 20
5059.72981355681
 30
0.0
 10
6252.591989401333
 20
5057.569634478287
 30
0.0
 10
6253.025015424636
 20
5055.58827949503
 30
0.0
 10
6253.192004490462
 20
5054.824203896983
 30
0.0
  0
SPLINE
  5
16E
330
1F
100
AcDbEntity
  8
0
  6
Continuous
 62
     7
370
    25
100
AcDbSpline
210
0.0
220
0.0
230
1.0
 70
     8
 71
     3
 72
    15
 73
    11
 74
     0
 42
0.000000001
 43
0.00000001
 40
0.0
 40
0.0
 40
0.0
 40
0.0
 40
0.0008057577637095
 40
0.1122274680303026
 40
0.2920751039104981
 40
0.4719227820984812
 40
0.5244776462854154
 40
0.7617290141430452
 40
0.998980533370845
 40
1.0
 40
1.0
 40
1.0
 40
1.0
 10
6248.51875551662
 20
5070.806534568801
 30
0.0
 10
6248.51875551359
 20
5070.806548898006
 30
0.0
 10
6248.51875509154
 20
5070.808544696806
 30
0.0
 10
6248.518756519138
 20
5070.805927395057
 30
0.0
 10
6248.518758770975
 20
5070.809141637442
 30
0.0
 10
6248.518767010904
 20
5070.810466913385
 30
0.0
 10
6248.518784507085
 20
5070.81304603438
 30
0.0
 10
6248.51882013688
 20
5070.816568571388
 30
0.0
 10
6248.518885532264
 20
5070.820781509115
 30
0.0
 10
6248.518943091934
 20
5070.823313555463
 30
0.0
 10
6248.518943338208
 20
5070.823324389081
 30
0.0
  0
ARC
  5
16F
330
1F
100
AcDbEntity
  8
0
  6
Continuous
 62
     7
370
    25
100
AcDbCircle
 10
6274.0187553361
 20
5070.8060555139
 30
0.0
 40
25.50000000000003
100
AcDbArc
 50
359.973116362
 51
180.026883638
  0
ARC
  5
170
330
1F
100
AcDbEntity
  8
0
  6
Continuous
 62
     7
370
    18
100
AcDbCircle
 10
6288.2759538791
 20
5048.2786999732
 30
0.0
 40
9.273760783630303
100
AcDbArc
 50
356.5477604718
 51
44.8949399037
  0
ARC
  5
171
330
1F
100
AcDbEntity
  8
0
  6
Continuous
 62
     7
370
    18
100
AcDbCircle
 10
6259.761556793
 20
5048.2786999733
 30
0.0
 40
9.273760783615351
100
AcDbArc
 50
135.1050600962
 51
183.4522395284
  0
ARC
  5
172
330
1F
100
AcDbEntity
  8
0
  6
Continuous
 62
     7
370
    25
100
AcDbCircle
 10
6284.5440877063
 20
5069.8530584476
 30
0.0
 40
14.93161200048168
100
AcDbArc
 50
354.8267355444
 51
5.1712982022
  0
SPLINE
  5
173
330
1F
100
AcDbEntity
  8
0
  6
Continuous
 62
     7
370
    25
100
AcDbSpline
210
0.0
220
0.0
230
1.0
 70
    24
 71
     3
 72
    19
 73
    15
 74
     0
 42
0.000000001
 43
0.00000001
 40
0.0
 40
0.0
 40
0.0
 40
0.0
 40
0.1027678611568431
 40
0.1644971405997134
 40
0.2448228798954806
 40
0.3253170055719775
 40
0.4068783734316392
 40
0.4884342528412925
 40
0.5860799337777666
 40
0.6388695757354165
 40
0.6945426215077991
 40
0.7952208362833649
 40
0.8857267994374499
 40
0.9999999999999999
 40
0.9999999999999999
 40
0.9999999999999999
 40
0.9999999999999999
 10
6299.41487700169
 20
5068.506706835089
 30
0.0
 10
6299.400712565479
 20
5068.350261773645
 30
0.0
 10
6299.378040017577
 20
5068.099845301231
 30
0.0
 10
6299.324343217607
 20
5067.506768454
 30
0.0
 10
6299.262238348649
 20
5066.82082515943
 30
0.0
 10
6299.174684380679
 20
5065.853798608224
 30
0.0
 10
6299.064600787073
 20
5064.63793414955
 30
0.0
 10
6298.921537207249
 20
5063.057808389298
 30
0.0
 10
6298.768747044945
 20
5061.370253305986
 30
0.0
 10
6298.614323467369
 20
5059.664657282063
 30
0.0
 10
6298.443956577335
 20
5057.782968651255
 30
0.0
 10
6298.21889590698
 20
5055.297191605247
 30
0.0
 10
6297.907938079352
 20
5051.862687349228
 30
0.0
 10
6297.667216268701
 20
5049.203934265257
 30
0.0
 10
6297.532885943053
 20
5047.72026659665
 30
0.0
  0
ARC
  5
174
330
1F
100
AcDbEntity
  8
0
  6
Continuous
 62
     7
370
    25
100
AcDbCircle
 10
6263.4934229657
 20
5069.8530584476
 30
0.0
 40
14.93161200027307
100
AcDbArc
 50
174.8287017978
 51
185.1732644557
  0
SPLINE
  5
175
330
1F
100
AcDbEntity
  8
0
  6
Continuous
 62
     7
370
    25
100
AcDbSpline
210
0.0
220
0.0
230
1.0
 70
    24
 71
     3
 72
    18
 73
    14
 74
     0
 42
0.000000001
 43
0.00000001
 40
0.0
 40
0.0
 40
0.0
 40
0.0
 40
0.0460665105664371
 40
0.1385586313582695
 40
0.1849972877108516
 40
0.2966909936522854
 40
0.4092684754397025
 40
0.5244553567512494
 40
0.6404696141674493
 40
0.7297890296697208
 40
0.8193792568285346
 40
0.9096144400495111
 40
1.0
 40
1.0
 40
1.0
 40
1.0
 10
6250.504624729147
 20
5047.72026659665
 30
0.0
 10
6250.449507635007
 20
5048.329030479036
 30
0.0
 10
6250.283726701424
 20
5050.160067588787
 30
0.0
 10
6250.080107793126
 20
5052.409022093286
 30
0.0
 10
6249.823920601992
 20
5055.238589063834
 30
0.0
 10
6249.573009831402
 20
5058.009878392822
 30
0.0
 10
6249.304398969641
 20
5060.976663808588
 30
0.0
 10
6249.079724654497
 20
5063.45817359229
 30
0.0
 10
6248.915598377092
 20
5065.270935157343
 30
0.0
 10
6248.799585090559
 20
5066.552292598599
 30
0.0
 10
6248.719165605996
 20
5067.440519353022
 30
0.0
 10
6248.659549747194
 20
5068.098971730125
 30
0.0
 10
6248.634945857437
 20
5068.370719718373
 30
0.0
 10
6248.62263367051
 20
5068.506706835089
 30
0.0
  0
SPLINE
  5
176
330
1F
100
AcDbEntity
  8
0
  6
Continuous
 62
     7
370
    25
100
AcDbSpline
210
0.0
220
0.0
230
1.0
 70
     8
 71
     3
 72
    36
 73
    32
 74
     0
 42
0.000000001
 43
0.00000001
 40
0.0
 40
0.0
 40
0.0
 40
0.0
 40
0.0365942735591893
 40
0.054892921531925
 40
0.0731886240702526
 40
0.1098005068772453
 40
0.1464306284255262
 40
0.1647468058956994
 40
0.1830608032319413
 40
0.2197038955267596
 40
0.2536828070416701
 40
0.2706729099511253
 40
0.2876617500336307
 40
0.3216481859581335
 40
0.3608699474908827
 40
0.400093854577996
 40
0.4393235400029228
 40
0.4785548911364156
 40
0.528226992751152
 40
0.5779016216715056
 40
0.6299125408962282
 40
0.6819254961155055
 40
0.7232041607670787
 40
0.7644835436918196
 40
0.8057621823376564
 40
0.8470413447729753
 40
0.8679785323288614
 40
0.8889157724832268
 40
0.9443626664117845
 40
0.9998102898810902
 40
1.0
 40
1.0
 40
1.0
 40
1.0
 10
6248.62263367051
 20
5068.506706835089
 30
0.0
 10
6248.616281692893
 20
5068.578815021754
 30
0.0
 10
6248.606753464154
 20
5068.686980279521
 30
0.0
 10
6248.596056631421
 20
5068.82129242261
 30
0.0
 10
6248.586146336222
 20
5068.951363467659
 30
0.0
 10
6248.575338444251
 20
5069.105164005076
 30
0.0
 10
6248.566294889295
 20
5069.248004391623
 30
0.0
 10
6248.559977806069
 20
5069.355967638177
 30
0.0
 10
6248.554224827442
 20
5069.45984359725
 30
0.0
 10
6248.548192330434
 20
5069.578630411787
 30
0.0
 10
6248.543271280041
 20
5069.686884957062
 30
0.0
 10
6248.539944432411
 20
5069.766184718011
 30
0.0
 10
6248.536919572336
 20
5069.84245707984
 30
0.0
 10
6248.533460170483
 20
5069.937786037465
 30
0.0
 10
6248.529990265283
 20
5070.046598332377
 30
0.0
 10
6248.527135283933
 20
5070.149914338532
 30
0.0
 10
6248.524914400375
 20
5070.243303249536
 30
0.0
 10
6248.523056036499
 20
5070.334823859356
 30
0.0
 10
6248.521596082644
 20
5070.422131343031
 30
0.0
 10
6248.520501470322
 20
5070.504384435394
 30
0.0
 10
6248.51977017995
 20
5070.575406130684
 30
0.0
 10
6248.519337129856
 20
5070.631519653589
 30
0.0
 10
6248.519082452935
 20
5070.675151440855
 30
0.0
 10
6248.518933788253
 20
5070.709016624783
 30
0.0
 10
6248.518844524113
 20
5070.737056089797
 30
0.0
 10
6248.518802929559
 20
5070.756035899346
 30
0.0
 10
6248.518782110785
 20
5070.768708463251
 30
0.0
 10
6248.518765398499
 20
5070.781963958277
 30
0.0
 10
6248.518757314091
 20
5070.792480981319
 30
0.0
 10
6248.518754627082
 20
5070.806110076463
 30
0.0
 10
6248.518755513604
 20
5070.803077631454
 30
0.0
 10
6248.518755516628
 20
5070.803067291537
 30
0.0
  0
ARC
  5
177
330
1F
100
AcDbEntity
  8
0
  6
Continuous
 62
     7
370
    25
100
AcDbCircle
 10
6284.5190064605
 20
5070.7940907128
 30
0.0
 40
14.99974205883526
100
AcDbArc
 50
359.9347127632
 51
0.0652872825
  0
SPLINE
  5
178
330
1F
100
AcDbEntity
  8
0
  6
Continuous
 62
     7
370
    25
100
AcDbSpline
210
0.0
220
0.0
230
1.0
 70
     8
 71
     3
 72
    17
 73
    13
 74
     0
 42
0.000000001
 43
0.00000001
 40
0.0
 40
0.0
 40
0.0
 40
0.0
 40
0.1397132968192297
 40
0.2152483039387902
 40
0.3499981406283018
 40
0.4487145165097451
 40
0.5434596935171061
 40
0.6382242604132712
 40
0.7507210370704497
 40
0.8753044579831404
 40
0.9376441393544459
 40
1.0
 40
1.0
 40
1.0
 40
1.0
 10
6299.518738781397
 20
5070.776998851826
 30
0.0
 10
6299.518712618474
 20
5070.757791884541
 30
0.0
 10
6299.518672310752
 20
5070.728200806055
 30
0.0
 10
6299.518250820151
 20
5070.637436065931
 30
0.0
 10
6299.517375560018
 20
5070.525756460939
 30
0.0
 10
6299.515005893991
 20
5070.35821254596
 30
0.0
 10
6299.511109131083
 20
5070.17027035204
 30
0.0
 10
6299.504022810697
 20
5069.925025024157
 30
0.0
 10
6299.490818695261
 20
5069.589856947901
 30
0.0
 10
6299.469553023296
 20
5069.206791569961
 30
0.0
 10
6299.442930883501
 20
5068.830644834805
 30
0.0
 10
6299.42422910448
 20
5068.614695508152
 30
0.0
 10
6299.41487700169
 20
5068.506706835089
 30
0.0
  0
SPLINE
  5
179
330
1F
100
AcDbEntity
  8
0
  6
Continuous
 62
     7
370
    25
100
AcDbSpline
210
0.0
220
0.0
230
1.0
 70
     8
 71
     3
 72
     9
 73
     5
 74
     0
 42
0.000000001
 43
0.00000001
 40
0.0
 40
0.0
 40
0.0
 40
0.0
 40
0.5919492725562503
 40
1.0
 40
1.0
 40
1.0
 40
1.0
 10
6299.518746910124
 20
5070.78685771104
 30
0.0
 10
6299.518746313043
 20
5070.785389513656
 30
0.0
 10
6299.518745304374
 20
5070.782909237976
 30
0.0
 10
6299.518740671744
 20
5070.778711671769
 30
0.0
 10
6299.518738781397
 20
5070.776998851826
 30
0.0
  0
SPLINE
  5
17A
330
1F
100
AcDbEntity
  8
0
  6
Continuous
 62
     8
370
    25
100
AcDbSpline
210
0.0
220
0.0
230
1.0
 70
     8
 71
     3
 72
     9
 73
     5
 74
     0
 42
0.000000001
 43
0.00000001
 40
0.0
 40
0.0
 40
0.0
 40
0.0
 40
0.1748698575199492
 40
1.0
 40
1.0
 40
1.0
 40
1.0
 10
6299.518738781383
 20
5070.811182585799
 30
0.0
 10
6299.518740556775
 20
5070.810890018625
 30
0.0
 10
6299.51875070942
 20
5070.809216961998
 30
0.0
 10
6299.518752405937
 20
5070.808250580742
 30
0.0
 10
6299.518753805785
 20
5070.807453190439
 30
0.0
  0
SPLINE
  5
17B
330
1F
100
AcDbEntity
  8
0
  6
Continuous
 62
     8
370
    25
100
AcDbSpline
210
0.0
220
0.0
230
1.0
 70
     8
 71
     3
 72
    16
 73
    12
 74
     0
 42
0.000000001
 43
0.00000001
 40
0.0
 40
0.0
 40
0.0
 40
0.0
 40
0.1994401616315006
 40
0.374815498941485
 40
0.4432209559185222
 40
0.5898187986851605
 40
0.71866901394481
 40
0.7949447145464115
 40
0.8977086163861604
 40
0.9865836765466336
 40
0.9999999999999999
 40
0.9999999999999999
 40
0.9999999999999999
 40
0.9999999999999999
 10
6299.414923196485
 20
5071.198899729567
 30
0.0
 10
6299.436384249182
 20
5071.154689306807
 30
0.0
 10
6299.476716823669
 20
5071.071602973897
 30
0.0
 10
6299.494738292537
 20
5071.001016973677
 30
0.0
 10
6299.506323685509
 20
5070.948160959701
 30
0.0
 10
6299.512269793818
 20
5070.909617074562
 30
0.0
 10
6299.515496039551
 20
5070.879089794939
 30
0.0
 10
6299.517150718315
 20
5070.857445680799
 30
0.0
 10
6299.51796336995
 20
5070.842347246442
 30
0.0
 10
6299.518321486854
 20
5070.832842333813
 30
0.0
 10
6299.518412850369
 20
5070.829248015883
 30
0.0
 10
6299.518424833416
 20
5070.828776592677
 30
0.0
  0
SPLINE
  5
17C
330
1F
100
AcDbEntity
  8
0
  6
Continuous
 62
     8
370
    25
100
AcDbSpline
210
0.0
220
0.0
230
1.0
 70
     8
 71
     3
 72
    18
 73
    14
 74
     0
 42
0.000000001
 43
0.00000001
 40
0.0
 40
0.0
 40
0.0
 40
0.0
 40
0.014651629960019
 40
0.1291352546210935
 40
0.2436191992543532
 40
0.3551720031572241
 40
0.4109485781891066
 40
0.4667248485725785
 40
0.5782800923593133
 40
0.683706121694369
 40
0.7891333456327506
 40
0.894565417624674
 40
1.0
 40
1.0
 40
1.0
 40
1.0
 10
6248.518943338208
 20
5070.823324389081
 30
0.0
 10
6248.518954579083
 20
5070.823826790886
 30
0.0
 10
6248.519053652913
 20
5070.828254815977
 30
0.0
 10
6248.519363533825
 20
5070.838621719515
 30
0.0
 10
6248.520385125994
 20
5070.858513951001
 30
0.0
 10
6248.522127102513
 20
5070.880204550372
 30
0.0
 10
6248.524401686157
 20
5070.900862259026
 30
0.0
 10
6248.52744248141
 20
5070.923990451845
 30
0.0
 10
6248.532932503001
 20
5070.957064534491
 30
0.0
 10
6248.543476067885
 20
5071.004295509493
 30
0.0
 10
6248.559893106716
 20
5071.059373686286
 30
0.0
 10
6248.583416221279
 20
5071.122962562721
 30
0.0
 10
6248.609530287273
 20
5071.17358713972
 30
0.0
 10
6248.622587475716
 20
5071.198899729566
 30
0.0
  0
ENDSEC
  0
SECTION
  2
OBJECTS
  0
DICTIONARY
  5
C
330
0
100
AcDbDictionary
281
     1
  3
ACAD_GROUP
350
D
  3
ACAD_LAYOUT
350
1A
  3
ACAD_MLINESTYLE
350
17
  3
ACAD_PLOTSETTINGS
350
19
  3
ACAD_PLOTSTYLENAME
350
E
  3
ACAD_SCALELIST
350
47
  0
DICTIONARY
  5
D
102
{ACAD_REACTORS
330
C
102
}
330
C
100
AcDbDictionary
281
     1
  0
DICTIONARY
  5
1A
102
{ACAD_REACTORS
330
C
102
}
330
C
100
AcDbDictionary
281
     1
  3
Layout1
350
1E
  3
Layout2
350
26
  3
Model
350
22
  0
DICTIONARY
  5
17
102
{ACAD_REACTORS
330
C
102
}
330
C
100
AcDbDictionary
281
     1
  3
Standard
350
18
  0
DICTIONARY
  5
19
102
{ACAD_REACTORS
330
C
102
}
330
C
100
AcDbDictionary
281
     1
  0
ACDBDICTIONARYWDFLT
  5
E
102
{ACAD_REACTORS
330
C
102
}
330
C
100
AcDbDictionary
281
     1
  3
Normal
350
F
100
AcDbDictionaryWithDefault
340
F
  0
DICTIONARY
  5
47
102
{ACAD_REACTORS
330
C
102
}
330
C
100
AcDbDictionary
281
     1
  3
A0
350
48
  3
A1
350
49
  3
A2
350
4A
  3
A3
350
4B
  3
A4
350
4C
  3
A5
350
4D
  3
A6
350
4E
  3
A7
350
4F
  3
A8
350
50
  3
A9
350
51
  3
B0
350
52
  3
B1
350
53
  3
B2
350
54
  3
B3
350
55
  3
B4
350
56
  3
B5
350
57
  3
B6
350
58
  3
B7
350
59
  3
B8
350
5A
  3
B9
350
5B
  3
C0
350
5C
  3
C1
350
5D
  3
C2
350
5E
  3
C3
350
5F
  3
C4
350
60
  3
C5
350
61
  3
C6
350
62
  3
C7
350
63
  3
C8
350
64
  3
C9
350
65
  3
D0
350
66
  3
D1
350
67
  3
D2
350
68
  0
LAYOUT
  5
1E
102
{ACAD_REACTORS
330
1A
102
}
330
1A
100
AcDbPlotSettings
  1

  2
none_device
  4

  6

 40
0.0
 41
0.0
 42
0.0
 43
0.0
 44
0.0
 45
0.0
 46
0.0
 47
0.0
 48
0.0
 49
0.0
140
0.0
141
0.0
142
1.0
143
1.0
 70
   688
 72
     1
 73
     0
 74
     5
  7

 75
    16
147
1.0
148
0.0
149
0.0
100
AcDbLayout
  1
Layout1
 70
     1
 71
     1
 10
0.0
 20
0.0
 11
420.0
 21
297.0
 12
0.0
 22
0.0
 32
0.0
 14
1.0000000000E+20
 24
1.0000000000E+20
 34
1.0000000000E+20
 15
-1.0000000000E+20
 25
-1.0000000000E+20
 35
-1.0000000000E+20
146
0.0
 13
0.0
 23
0.0
 33
0.0
 16
1.0
 26
0.0
 36
0.0
 17
0.0
 27
1.0
 37
0.0
 76
     0
330
1B
  0
LAYOUT
  5
26
102
{ACAD_REACTORS
330
1A
102
}
330
1A
100
AcDbPlotSettings
  1

  2
none_device
  4

  6

 40
0.0
 41
0.0
 42
0.0
 43
0.0
 44
0.0
 45
0.0
 46
0.0
 47
0.0
 48
0.0
 49
0.0
140
0.0
141
0.0
142
1.0
143
1.0
 70
   688
 72
     1
 73
     0
 74
     5
  7

 75
    16
147
1.0
148
0.0
149
0.0
100
AcDbLayout
  1
Layout2
 70
     1
 71
     2
 10
0.0
 20
0.0
 11
0.0
 21
0.0
 12
0.0
 22
0.0
 32
0.0
 14
0.0
 24
0.0
 34
0.0
 15
0.0
 25
0.0
 35
0.0
146
0.0
 13
0.0
 23
0.0
 33
0.0
 16
1.0
 26
0.0
 36
0.0
 17
0.0
 27
1.0
 37
0.0
 76
     0
330
23
  0
LAYOUT
  5
22
102
{ACAD_REACTORS
330
1A
102
}
330
1A
100
AcDbPlotSettings
  1

  2
none_device
  4
Letter_(8.50_x_11.00_Inches)
  6

 40
6.35
 41
6.35
 42
6.35000508
 43
6.35000508
 44
215.9
 45
279.4
 46
0.0
 47
0.0
 48
0.0
 49
0.0
140
0.0
141
0.0
142
1.0
143
1.0
 70
  1712
 72
     1
 73
     0
 74
     0
  7

 75
     0
147
1.0
148
0.0
149
0.0
100
AcDbLayout
  1
Model
 70
     1
 71
     0
 10
0.0
 20
0.0
 11
20000.0
 21
10000.0
 12
0.0
 22
0.0
 32
0.0
 14
0.0
 24
0.0
 34
0.0
 15
20000.0
 25
10000.0
 35
0.0
146
0.0
 13
0.0
 23
0.0
 33
0.0
 16
1.0
 26
0.0
 36
0.0
 17
0.0
 27
1.0
 37
0.0
 76
     0
330
1F
331
29
  0
MLINESTYLE
  5
18
102
{ACAD_REACTORS
330
17
102
}
330
17
100
AcDbMlineStyle
  2
Standard
 70
     0
  3

 62
   256
 51
90.0
 52
90.0
 71
     2
 49
0.5
 62
   256
  6
BYLAYER
 49
-0.5
 62
   256
  6
BYLAYER
  0
ACDBPLACEHOLDER
  5
F
102
{ACAD_REACTORS
330
E
102
}
330
E
  0
SCALE
  5
48
102
{ACAD_REACTORS
330
47
102
}
330
47
100
AcDbScale
 70
     0
300
1:1
140
1.0
141
1.0
290
     1
  0
SCALE
  5
49
102
{ACAD_REACTORS
330
47
102
}
330
47
100
AcDbScale
 70
     0
300
1:2
140
1.0
141
2.0
290
     0
  0
SCALE
  5
4A
102
{ACAD_REACTORS
330
47
102
}
330
47
100
AcDbScale
 70
     0
300
1:4
140
1.0
141
4.0
290
     0
  0
SCALE
  5
4B
102
{ACAD_REACTORS
330
47
102
}
330
47
100
AcDbScale
 70
     0
300
1:5
140
1.0
141
5.0
290
     0
  0
SCALE
  5
4C
102
{ACAD_REACTORS
330
47
102
}
330
47
100
AcDbScale
 70
     0
300
1:8
140
1.0
141
8.0
290
     0
  0
SCALE
  5
4D
102
{ACAD_REACTORS
330
47
102
}
330
47
100
AcDbScale
 70
     0
300
1:10
140
1.0
141
10.0
290
     0
  0
SCALE
  5
4E
102
{ACAD_REACTORS
330
47
102
}
330
47
100
AcDbScale
 70
     0
300
1:16
140
1.0
141
16.0
290
     0
  0
SCALE
  5
4F
102
{ACAD_REACTORS
330
47
102
}
330
47
100
AcDbScale
 70
     0
300
1:20
140
1.0
141
20.0
290
     0
  0
SCALE
  5
50
102
{ACAD_REACTORS
330
47
102
}
330
47
100
AcDbScale
 70
     0
300
1:30
140
1.0
141
30.0
290
     0
  0
SCALE
  5
51
102
{ACAD_REACTORS
330
47
102
}
330
47
100
AcDbScale
 70
     0
300
1:40
140
1.0
141
40.0
290
     0
  0
SCALE
  5
52
102
{ACAD_REACTORS
330
47
102
}
330
47
100
AcDbScale
 70
     0
300
1:50
140
1.0
141
50.0
290
     0
  0
SCALE
  5
53
102
{ACAD_REACTORS
330
47
102
}
330
47
100
AcDbScale
 70
     0
300
1:100
140
1.0
141
100.0
290
     0
  0
SCALE
  5
54
102
{ACAD_REACTORS
330
47
102
}
330
47
100
AcDbScale
 70
     0
300
2:1
140
2.0
141
1.0
290
     0
  0
SCALE
  5
55
102
{ACAD_REACTORS
330
47
102
}
330
47
100
AcDbScale
 70
     0
300
4:1
140
4.0
141
1.0
290
     0
  0
SCALE
  5
56
102
{ACAD_REACTORS
330
47
102
}
330
47
100
AcDbScale
 70
     0
300
8:1
140
8.0
141
1.0
290
     0
  0
SCALE
  5
57
102
{ACAD_REACTORS
330
47
102
}
330
47
100
AcDbScale
 70
     0
300
10:1
140
10.0
141
1.0
290
     0
  0
SCALE
  5
58
102
{ACAD_REACTORS
330
47
102
}
330
47
100
AcDbScale
 70
     0
300
100:1
140
100.0
141
1.0
290
     0
  0
SCALE
  5
59
102
{ACAD_REACTORS
330
47
102
}
330
47
100
AcDbScale
 70
     0
300
1/128" = 1'-0"
140
0.0078125
141
12.0
290
     0
  0
SCALE
  5
5A
102
{ACAD_REACTORS
330
47
102
}
330
47
100
AcDbScale
 70
     0
300
1/64" = 1'-0"
140
0.015625
141
12.0
290
     0
  0
SCALE
  5
5B
102
{ACAD_REACTORS
330
47
102
}
330
47
100
AcDbScale
 70
     0
300
1/32" = 1'-0"
140
0.03125
141
12.0
290
     0
  0
SCALE
  5
5C
102
{ACAD_REACTORS
330
47
102
}
330
47
100
AcDbScale
 70
     0
300
1/16" = 1'-0"
140
0.0625
141
12.0
290
     0
  0
SCALE
  5
5D
102
{ACAD_REACTORS
330
47
102
}
330
47
100
AcDbScale
 70
     0
300
3/32" = 1'-0"
140
0.09375
141
12.0
290
     0
  0
SCALE
  5
5E
102
{ACAD_REACTORS
330
47
102
}
330
47
100
AcDbScale
 70
     0
300
1/8" = 1'-0"
140
0.125
141
12.0
290
     0
  0
SCALE
  5
5F
102
{ACAD_REACTORS
330
47
102
}
330
47
100
AcDbScale
 70
     0
300
3/16" = 1'-0"
140
0.1875
141
12.0
290
     0
  0
SCALE
  5
60
102
{ACAD_REACTORS
330
47
102
}
330
47
100
AcDbScale
 70
     0
300
1/4" = 1'-0"
140
0.25
141
12.0
290
     0
  0
SCALE
  5
61
102
{ACAD_REACTORS
330
47
102
}
330
47
100
AcDbScale
 70
     0
300
3/8" = 1'-0"
140
0.375
141
12.0
290
     0
  0
SCALE
  5
62
102
{ACAD_REACTORS
330
47
102
}
330
47
100
AcDbScale
 70
     0
300
1/2" = 1'-0"
140
0.5
141
12.0
290
     0
  0
SCALE
  5
63
102
{ACAD_REACTORS
330
47
102
}
330
47
100
AcDbScale
 70
     0
300
3/4" = 1'-0"
140
0.75
141
12.0
290
     0
  0
SCALE
  5
64
102
{ACAD_REACTORS
330
47
102
}
330
47
100
AcDbScale
 70
     0
300
1" = 1'-0"
140
1.0
141
12.0
290
     0
  0
SCALE
  5
65
102
{ACAD_REACTORS
330
47
102
}
330
47
100
AcDbScale
 70
     0
300
1-1/2" = 1'-0"
140
1.5
141
12.0
290
     0
  0
SCALE
  5
66
102
{ACAD_REACTORS
330
47
102
}
330
47
100
AcDbScale
 70
     0
300
3" = 1'-0"
140
3.0
141
12.0
290
     0
  0
SCALE
  5
67
102
{ACAD_REACTORS
330
47
102
}
330
47
100
AcDbScale
 70
     0
300
6" = 1'-0"
140
6.0
141
12.0
290
     0
  0
SCALE
  5
68
102
{ACAD_REACTORS
330
47
102
}
330
47
100
AcDbScale
 70
     0
300
1'-0" = 1'-0"
140
12.0
141
12.0
290
     0
  0
ENDSEC
  0
EOF
